Oops, an error
Loading. Please wait.

Within Destruction Tab

version 3
version 3

Whole song

Interactive

26,614 views 9 this week
15 commentsread comments
1 2 3 4 5
x 15
add to favorites
launch autoscroll
font size
0
reset
how to read this tab
guitar tuner
Autoscroll
slow
fast
+/-
esc
set tempo
stop
Help us to improve Ultimate-Guitar.com Take our survey!
×
As I Lay Dying
Within Destruction
An Ocean Between Us

Drop C#


This is what ive come up with on this song. after looking at the other  

tabs, ive found some mistakes on sections on this song. in the midle of the 

song, you know that soloish sort of thing, the music video gives it away i 

guess... Well folks, here it is! And ive found the REAL tuning for the 

song. it is actually played in open d#(D#,A#,D#,G#,B#,d#). its a strange 

tuning, but thats how they play it. ive added the separate version at the 

bottom.

VERSION 1

[-----------------------------------------------------------------------]
[-----------------------------------------------------------------------]
[-----------------------------------------------------------------------]
[-----------------------------------------------------------------------]2x
[-2-----5-4----3-4-----5-4-3-4--2-----5-4-----3-4-----11h12p11p8h11-----]
[-2-222-5-4-22-3-4-222-5-4-3-4--2-222-5-4-222-3-4-222-------------------]
                                                            ^^1st time

                                               vv2nd time
                                     [-------------------------------]
                                     [-------------------------------]
                                     [-------------------------------]
                                     [-------------------------------]
                                     [--11h12p11p8h11-7h8p7p5h7------]
                                     [-------------------------------]

  (IF MUSIC IS..)
[-----------------------------------------------------------------------]
[-----------------------------------------------------------------------]
[-----------------------------------------------------------------------]
[-----------------------------------------------------------------------]2x
[-2-----5-4----3-4-----5-4-3-4--2-----5-4-----3-4-----11h12p11p8h11-----]
[-2-222-5-4-22-3-4-222-5-4-3-4--2-222-5-4-222-3-4-222-------------------]
                                                            ^^1st time

                                               vv2nd time
                                     [-------------------------------]
                                     [-------------------------------]
                                     [-------------------------------]
                                     [-------------------------------]
                                     [--11h12p11p8h11-7h8p7p5h7------]
                                     [-------------------------------]


[--------------------------------------------]
[--------------------------------------------]
[--------------------------------------------]2x
[--------------------------------------------]
[---------------------------------------8-7-5]
[-4444444444444-5h7p5p4h5-4444444444444-8-7-5]
                                        ^^1st time

                                        vv2nd time
                                    [-------------]
                                    [-------------]
                                    [-------------]
                                    [-------------]
                                    [-4-5-4-8-7-5-]
                                    [-4-5-4-8-7-5-]


[-----------------------------------------------]
[-----------------------------------------------]
[-----------------------------------------------]4x
[-----------------------------------------------]
[-2----------------------2--------------3-----5-]
[-2-2222-222-222-222-222-2-2222-222-222-3-222-5-]

                                        ^^1st, 2nd, and
                                          3rd time, then play:

                                      [-------------------------]
                                      [-------------------------]
                                      [-------------------------]
                                      [-------------------------]
                                      [-----3-----5-----7-----5-]
                                      [-222-3-222-5-222-7-222-5-]


This is the solo-ish part of the song, so yeah. ive hear this song a

thousand times, and im positive this is how to play it. Oh, and its all 

hammer-ons, so the dinamics youll have to listen for.


[-12-0-12-0-12-0-12-0-12-0-12-0-12-0-12-0-12-0-12-]
[-------------------------------------------------]
[-------------------------------------------------]
[-------------------------------------------------]4x
[-------------------------------------------------]
[-------------------------------------------------]

[-/16-0-16-0-16-0-16-0-13-0-13-0-13-0-13-0-12-0-12-0-12-0-12-0-12-0-]
[-------------------------------------------------------------------]
[-------------------------------------------------------------------]
[-------------------------------------------------------------------]
[-------------------------------------------------------------------]
[-------------------------------------------------------------------]


[-12-0-12-0-12-0-12-0-12-0-12-0-12-0-12-0-12-0-12-0-]
[---------------------------------------------------]
[---------------------------------------------------]2x
[---------------------------------------------------]
[---------------------------------------------------]
[---------------------------------------------------]


[-/16-0-16-0-16-0-16-0-13-0-13-0-13-0-13-0-12-0-12-0-12-0-12-0-12-0-]
[-------------------------------------------------------------------]
[-------------------------------------------------------------------]
[-------------------------------------------------------------------]
[-------------------------------------------------------------------]
[-------------------------------------------------------------------]


[-12-0-12-0-12-0-12-0-12-0-12-0-12-0-12-0-12-0-12-0-]
[---------------------------------------------------]
[---------------------------------------------------]
[---------------------------------------------------]
[---------------------------------------------------]
[---------------------------------------------------]


[-11-0-11-0-11-0-11-0-8-0-8-0-8-0-8-0-7-0-7-0-7-0-7h8-7-0-7-0-7-0-7-0-7-0-7]
[--------------------------------------------------------------------------]
[--------------------------------------------------------------------------]
[--------------------------------------------------------------------------]
[--------------------------------------------------------------------------]
[--------------------------------------------------------------------------]


[-12-0-12-0-12-0-12-0-12-0-12-0-12-0-12-0-12-0-12-0-12-0-]
[--------------------------------------------------------]
[--------------------------------------------------------]
[--------------------------------------------------------]2x
[--------------------------------------------------------]
[--------------------------------------------------------]


[---------------------------------------]
[---------------------------------------]
[---------------------------------------]
[---------------------------------------]
[-3333333333333333333333333333333333333-]
[-3333333333333333333333333333333333333-]


[----------------------------------------------------------------------]
[----------------------------------------------------------------------]
[----------------------------------------------------------------------]
[----------------------------------------------------------------------]2x
[-2-----5-4-----3-4-----5-4-3-4--2-----5-4-----11h12p11p8h11-7h8p7p5h7-]
[-2-222-5-4-222-3-4-222-5-4-3-4--2-222-5-4-222-------------------------]


[-----------------------------------------------------------------------]
[-----------------------------------------------------------------------]
[-----------------------------------------------------------------------]
[-----------------------------------------------------------------------]2x
[-2-----5-4----3-4-----5-4-3-4--2-----5-4-----3-4-----11h12p11p8h11-----]
[-2-222-5-4-22-3-4-222-5-4-3-4--2-222-5-4-222-3-4-222-------------------]
                                                            ^^1st time

                                               vv2nd time
                                     [-------------------------------]
                                     [-------------------------------]
                                     [-------------------------------]
                                     [-------------------------------]
                                     [--11h12p11p8h11-7h8p7p5h7------]
                                     [-------------------------------]


[--------------------------------------------]
[--------------------------------------------]
[--------------------------------------------]2x
[--------------------------------------------]
[---------------------------------------8-7-5]
[-4444444444444-5h7p5p4h5-4444444444444-8-7-5]
                                        ^^1st time

                                        vv2nd time
                                    [-------------]
                                    [-------------]
                                    [-------------]
                                    [-------------]
                                    [-4-5-4-8-7-5-]
                                    [-4-5-4-8-7-5-]

[-------------------------------------------------------]
[-------------------------------------------------------]
[-------------------------------------------------------]
[-------------------------------------------------------](Listen for timing)
[-2--------------22---------22-----22-----22---------22-]
[-2-2222-222-222-22-222-222-22-222-22-222-22-222-222-22-]
            (rythem guitar keeps playling this)

[-------------------------------------------]
[-------------------------------------------]
[-7--7---6-6--4-4-6-6-7--7--6-6-9--9--7--7--]
[-10-10--9-9--7-7-9-9-10-10-9-9-12-12-10-10-]2x
[-------------------------------------------]
[-------------------------------------------]


[---------------------------------------------------------------]
[---------------------------------------------------------------]
[-7--7--7--7--7--7--6-6-6-6-6-6-4-4-6-6-7--7--7--7--7--7--7--7--]
[-10-10-10-10-10-10-9-9-9-9-9-9-7-7-9-9-10-10-10-10-10-10-10-10-]
[---------------------------------------------------------------]
[---------------------------------------------------------------]


[---------------------]
[---------------------]
[-6-6-6-6-9--9--9--9--]
[-9-9-9-9-12-12-12-12-] (play the line above and this one twice)
[---------------------]
[---------------------]

[-------------------------------------------]
[-------------------------------------------]
[-7--7---6-6--4-4-6-6-7--7--6-6-9--9--7--7--]
[-10-10--9-9--7-7-9-9-10-10-9-9-12-12-10-10-](play untill fade, or just
[-------------------------------------------] play 5x, hit acord that suites
[-------------------------------------------] you, then slide down)

Well, i hope you enjoyed this tab (its my first by the way).

this is an awsome song. feel free to shoot me an e-mail if theres anything 

i didnt cover, or if wrong, or you could just coment. either is fine.

===========================================================================================
                                       VERSION 2
===========================================================================================
tuning: open D#
   (D#,A#,D#,G#,B#,d#)

INTRO:
d#|----------------------------------------------------------------|
B#|----------------------------------------------------------------|
G#|----------------------------------------------------------------|
D#|----------------------------------------------------------------|
A#|-0-----3-2----1-2----3-2-1-2-0-----3-2----1-2----9h10p9p6h9-----|
D#|-0-000-3-2-00-1-2-00-3-2-1-2-0-000-3-2-00-1-2-00----------------|
                                                                   |4x
                                                                   |
d#|----------------------------------------------------------------|
B#|----------------------------------------------------------------|
G#|----------------------------------------------------------------|
D#|----------------------------------------------------------------|
A#|-0-----3-2----1-2----3-2-1-2-0-----3-2----9h10p9p6h9--5h6p5p3h5-|
D#|-0-000-3-2-00-1-2-00-3-2-1-2-0-000-3-2-00-----------------------|


VERSE 1
d#|-------------------------------------------|--------|-----------------|
B#|-------------------------------------------|--1st---|------2nd--------|
G#|-------------------------------------------|--time--|------time-------|2x
D#|-------------------------------------------|--------|-----------------|
A#|-------------------------------------------|-6-5-3--|--2-3-2-6-5-3----|
D#|-2tp-3-2tp-5-2tp-3h5p3p2h3-2tp-3-2tp-5-2tp-|-6-5-3--|--2-3-2-6-5-3----|

BREAKDOWN(ish)
Gtr 1
d#|------------------------------------------------------------------------|
B#|------------------------------------------------------------------------|
G#|------------------------------------------------------------------------|
D#|------------------------------------------------------------------------|
A#|--------------------------------------------1-----3---------------------|
D#|--0-0000-000-000-000-000-0-0000-000-000-000-1-000-3---------------------|
PM--------------------------------------------|PM---|                      |
                                                                           |2x
Gtr 2                                                                      |
d#|------------------------------------------------------------------------|
B#|------------------------------------------------------------------------|
G#|------------------------------------------------------------------------|
D#|--0---------------------------------------------------------------------|
A#|--0---------------------------------------------------------------------|
D#|--0---------------------------------------------------------------------|

both gtrs.
d#|------------------------------------------------------------------------|
B#|------------------------------------------------------------------------|
G#|------------------------------------------------------------------------|2x
D#|------------------------------------------------------------------------|
A#|------------------------------------------------------------------------|
D#|--0-0000-000-000-000-000-000-000-0-0000-000-000-000-000-000-000---------|
PM-----------------------------------------------------------------|       |
                                                                           |
d#|------------------------------------------------------------------------|
B#|------------------------------------------------------------------------|
G#|------------------------------------------------------------------------|2x
D#|------------------------------------------------------------------------|
A#|----------------------------------------------------1-----3-------------|
D#|--0-0000-000-000-000-000-000-000-0-0000-000-000-000-1-000-3-------------|
PM----------------------------------------------------|PM---|^1st time 
                                   
                                                     2nd time v
  |-------------------|                     d#|--------------------------|
  |---Quick-note:-----|                     B#|--------------------------|
  |-------------------|                     G#|--------------------------|
  |AILD FUCKING RULES.|                     D#|--------------------------|
                                            A#|-----1-----3-----5-----1--|
                                            D#|-000-1-000-3-000-5-000-1--|


d#|--12-0-12-0-12-0-12-0-12-0-12-0-12-0-12-0-12-0-12--|
B#|---------------------------------------------------|
G#|---------------------------------------------------|4x
D#|---------------------------------------------------|
A#|---------------------------------------------------|
D#|---------------------------------------------------|


d#|--/16-0-16-0-16-0-16-0-13-0-13-0-13-0-13-0-12-0-12-0-12-0-12-0-12-0-----|
B#|------------------------------------------------------------------------|
G#|------------------------------------------------------------------------|
D#|------------------------------------------------------------------------|
A#|------------------------------------------------------------------------|
D#|------------------------------------------------------------------------|


d#|--12-0-12-0-12-0-12-0-12-0-12-0-12-0-12-0-12-0-12--|
B#|---------------------------------------------------|
G#|---------------------------------------------------|
D#|---------------------------------------------------|
A#|---------------------------------------------------|
D#|---------------------------------------------------|


d#|--/16-0-16-0-16-0-16-0-13-0-13-0-13-0-13-0-12-0-12-0-12-0-12-0-12-0-----|
B#|------------------------------------------------------------------------|
G#|------------------------------------------------------------------------|
D#|------------------------------------------------------------------------|
A#|------------------------------------------------------------------------|
D#|------------------------------------------------------------------------|


d#|--12-0-12-0-12-0-12-0-12-0-12-0-12-0-12-0-12-0-12--|
B#|---------------------------------------------------|
G#|---------------------------------------------------|
D#|---------------------------------------------------|
A#|---------------------------------------------------|
D#|---------------------------------------------------|



d#|-11-0-11-0-11-0-11-0-8-0-8-0-8-0-8-0-7-0-7-0-7-0-7h8-7-0-7-0-7-0-7-0-7-0-7-|
B#|---------------------------------------------------------------------------|
G#|---------------------------------------------------------------------------|
D#|---------------------------------------------------------------------------|
A#|---------------------------------------------------------------------------|
D#|---------------------------------------------------------------------------|


d#|--12-0-12-0-12-0-12-0-12-0-12-0-12-0-12-0-12-0-12--|
B#|---------------------------------------------------|
G#|---------------------------------------------------|2x
D#|---------------------------------------------------|
A#|---------------------------------------------------|
D#|---------------------------------------------------|



d#|------------------------------------------------------------------------|
B#|------------------------------------------------------------------------|
G#|------------------------------------------------------------------------|
D#|------------------------------------------------------------------------|
A#|-1111111111111111111111111111111111111111111111111111111111111----------|
D#|-1111111111111111111111111111111111111111111111111111111111111----------|


d#|----------------------------------------------------------------|
B#|----------------------------------------------------------------|
G#|----------------------------------------------------------------|2x
D#|----------------------------------------------------------------|
A#|-0-----3-2----1-2----3-2-1-2-0-----3-2----9h10p9p6h9--5h6p5p3h5-|
D#|-0-000-3-2-00-1-2-00-3-2-1-2-0-000-3-2-00-----------------------|


d#|----------------------------------------------------------------|
B#|----------------------------------------------------------------|
G#|----------------------------------------------------------------|
D#|----------------------------------------------------------------|
A#|-0-----3-2----1-2----3-2-1-2-0-----3-2----1-2----9h10p9p6h9-----|
D#|-0-000-3-2-00-1-2-00-3-2-1-2-0-000-3-2-00-1-2-00----------------|
                                                                   |
                                                                   |
d#|----------------------------------------------------------------|
B#|----------------------------------------------------------------|
G#|----------------------------------------------------------------|
D#|----------------------------------------------------------------|
A#|-0-----3-2----1-2----3-2-1-2-0-----3-2----9h10p9p6h9--5h6p5p3h5-|
D#|-0-000-3-2-00-1-2-00-3-2-1-2-0-000-3-2-00-----------------------|


d#|-------------------------------------------|--------|-----------------|
B#|-------------------------------------------|--1st---|------2nd--------|
G#|-------------------------------------------|--time--|------time-------|2x
D#|-------------------------------------------|--------|-----------------|
A#|-------------------------------------------|-6-5-3--|--2-3-2-6-5-3----|
D#|-2tp-3-2tp-5-2tp-3h5p3p2h3-2tp-3-2tp-5-2tp-|-6-5-3--|--2-3-2-6-5-3----|


END BREAKDOWN   (listen for timeing, gtr 2 keeps going till end)
BOTH gtrs
d#|------------------------------------------------------------------------|
B#|------------------------------------------------------------------------|
G#|------------------------------------------------------------------------|
D#|------------------------------------------------------------------------|
A#|------------------------------------------------------------------------|
D#|-000-00-000-000-00-000-000-00-000-00-000-000-00-000-000-00-000----------|

    ()= optional notes
d#|---------------------------------------------------------------------------|
B#|---------------------------------------------------------------------------|
G#|-(7)(7)-------(7)--(7)(7)--(7)(7)(7)(7)--------(7)--(7)(7)-----------------|2x
D#|--7--7---------7----6--6----5--6--7--7----------7----6--6----9--9----------|
A#|--5--5---------5----5--5----5--5--5--5----------5----5--5----5--5----------|
D#|-------0-0-0-0---00-----00--------------0-0-0-0---00------00------0-0-0-0--|


d#|----------------------------------------|
B#|----------------------------------------|
G#|----------------------------------------|2x
D#|--77777777-6666-55-66-77777777-66-9999--|
A#|--55555555-5555-55-55-55555555-55-5555--|
D#|----------------------------------------|


d#|---------------------------------------------------------------------------|
B#|---------------------------------------------------------------------------|
G#|-(7)(7)-------(7)--(7)(7)--(7)(7)(7)(7)--------(7)--(7)(7)-----------------|
D#|--7--7---------7----6--6----5--6--7--7----------7----6--6----9--9----------|
A#|--5--5---------5----5--5----5--5--5--5----------5----5--5----5--5----------|
D#|-------0-0-0-0---00-----00--------------0-0-0-0---00------00------0-0-0-0--|
repeat untill fade


Suggest correction
comments
print report bad tab
15 comments total. Showing first comments. show 1 bad comment
+3 reply
Novikka65 10 Feb 22, 2009 02:31 AM

your like the first person to actually get the tuning right. xD
and this is actually very accurate i think, 5*
I'm to sure about the last part though.

+7 reply
Lloyd2 10 May 21, 2009 10:33 AM

they dont play everything in drop c sound of truth for example is in drop d

guest
You may want to rate the tab now too:
select rating
Wanna post a correction for this tab? Suggest correction