Oops, an error
Loading. Please wait.

Within Destruction Tab

version 4
version 4

Whole song

Interactive

1,140 views 1 this week
1 commentread comment
1 2 3 4 5
1 last vote to show rating
add to favorites
launch autoscroll
font size
0
reset
how to read this tab
guitar tuner
Autoscroll
slow
fast
+/-
esc
set tempo
stop
Help us to improve Ultimate-Guitar.com Take our survey!
×
Author
Difficulty
novice
As I Lay Dying
An Ocean Between Us
Within Destruction


This is my first tab. Ive noticed that in the music video they play the
first chord in an open chord so all those tabs that are in drop C and
start on the 3rd fret are wrong. ive figured that this song is easier to
play in this tuning


They play D-A-D-G-B-D# LIVE, but on the album he plays it in D#-A#-D#-G#-B#-E.. kinda 
but its how its done (Drop D is easier)
Note that the high E string is not normal, its tuned town a little bit.
Enjoy!


(0.01) Both Guitars
-------------------------------------------------------------|
-------------------------------------------------------------|
-------------------------------------------------------------|
--0~----------0~----------0~----------0~-----PICK SLIDE!!----|
--0~----------0~----------0~----------0~----->>>>>>>>>>>>----|
--0~----------0~---------12~----------0~----->>>>>>>>>>>>----|

(0.21) Both Guitars
-------------------------------------------------------------|
-------------------------------------------------------------|
-------------------------------------------------------------|
---0-----3-2-----1-2-----3-2-1-2----0-----3-2-----1-2--------|
---0-----3-2-----1-2-----3-2-1-2----0-----3-2-----1-2--------|
---0-00003-2-00001-2-00003-2-1-2----0-00003-2-00001-2-0000---|

---------------------|
---------------------|
---------------------|
---------------------|
---9-10p9-6-9--------|
---------------------|

-------------------------------------------------------------|
-------------------------------------------------------------|
-------------------------------------------------------------|
---0-----3-2-----1-2-----3-2-1-2----0-----3-2----------------|
---0-----3-2-----1-2-----3-2-1-2----0-----3-2----------------|
---0-00003-2-00001-2-00003-2-1-2----0-00003-2-0000-----------|

-----------------------------|
-----------------------------|
-----------------------------|
-----------------------------|
---9-10p9-6-9-5-6p5-3-5------|
-----------------------------|

(0.41) Both Guitars
-------------------------------------------------------------|
-------------------------------------------------------------|
-------------------------------------------------------------|
-------------------------------------------------------------|
---2--------------------------2------------------6--5--3-----|
---2-222222222222222233553355-2-2222222222222222-6--5--3-----|

----------------------------------------------------------------|
----------------------------------------------------------------|
----------------------------------------------------------------|
----------------------------------------------------------------|
---2--------------------------2------------------2-3-2-6-5-3----|
---2-222222223222222233553355-2-2222222222222222-2-3-2-6-5-3----|

(0.50) Guitar 1
---------------------------------------------------------------|
---------------------------------------------------------------|
---------------------------------------------------------------|
---------------------------------------------------------------|
-----------------------------------------------------3-----0---|
--0-000-0-000-000-000-000-000-000-0-000-0-000-000-0000-00000---|

(0.50) Guitar 2
---------------------------------------------------------------|
---------------------------------------------------------------|
---------------------------------------------------------------|
--0~-----------------------------------------------------------|
--0~-----------------------------------------------------------|
--0~---------------------------------------------------12\-----|

(0.59) Both Guitars
------------------|
------------------|
------------------|
------------------|
------2-----3-----|
--00002-00003-----|

(1.01) Both Guitars
--------------------------------------------------------------------|
--------------------------------------------------------------------|
--------------------------------------------------------------------|
--------------------------------------------------------------------|
--------------------------------------------------------------------|
--0-000-0-000-000-000-000-000-000-0-000-0-000-000-000-000-000-000---|


---------------------------------------------------------------|
---------------------------------------------------------------|
---------------------------------------------------------------| these next
---------------------------------------------------------------| parts arent
------------------------------------------------------2-----3--| completely
--0-000-0-000-000-000-000-000-000-0-000-0-000-000-00002-00003--| right but it
                                                                still sounds
---------------------------------------------------------------|  okay..
---------------------------------------------------------------|
---------------------------------------------------------------|
---------------------------------------------------------------|
------------------------------------------------------2-----3--|
--0-000-0-000-000-000-000-000-000-0-000-0-000-000-00002-00003--|

---------------------------------------------------------------------------|
---------------------------------------------------------------------------|
---------------------------------------------------------------------------|
---------------------------------------------------------------------------|
------------------------------------------------------2-----3-----5-----6--|
--0-000-0-000-000-000-000-000-000-0-000-0-000-000-00002-00003-00005-00006--|

(1.23) Guitar 1
--12-12-12-12-12-12-12-12-12-12-12-12-12-12-12-12---|
----------------------------------------------------|
----------------------------------------------------|
----------------------------------------------------|
----------------------------------------------------|
----------------------------------------------------|

(1.23) Guitar 2
----------------------------------------------------|
----------------------------------------------------|
----------------------------------------------------|
--0~---------------------------------------------1--|
--0~---------------------------------------------1--|
--0~---------------------------------------------1--|

(1.34) Guitar 1
--12-12-12-12-12-12-12-12-16-16-16-16-13-13-13-13---|
----------------------------------------------------|
----------------------------------------------------|
----------------------------------------------------|
----------------------------------------------------|
----------------------------------------------------|

(1.34) Guitar 2
----------------------------------------------------|
----------------------------------------------------|
----------------------------------------------------|
--0~---------------------------------------------1--|
--0~---------------------------------------------1--|
--0~---------------------------------------------1--|

(1.56) Guitar 1
--12-12-12-12-12-12-12-12-11-11-11-11-8-8-8-8-7------|
-----------------------------------------------------|
-----------------------------------------------------|
-----------------------------------------------------|
-----------------------------------------------------|
-----------------------------------------------------|

(1.56) Guitar 2
----------------------------------------------------|
----------------------------------------------------|
----------------------------------------------------|
--0~---------------------------------------------1--|
--0~---------------------------------------------1--|
--0~---------------------------------------------1--|

(2.02) Guitar 1
--7-7-7-7-7-7-7-7-7-7-7-7-7-7-7-7---|
------------------------------------|
------------------------------------|
------------------------------------|
------------------------------------|
------------------------------------|

(2.02) Guitar 2
----------------------------------------------------|
----------------------------------------------------|
----------------------------------------------------|
--0~---------------------------------------------1--|
--0~---------------------------------------------1--|
--0~---------------------------------------------1--|

(2.06) Guitar 1
--12-12-12-12-12-12-12-12-12-12-12-12-12-12-12-12---|
----------------------------------------------------|
----------------------------------------------------|
----------------------------------------------------|
----------------------------------------------------|
----------------------------------------------------|

(2.06) Guitar 2
----------------------------------------------------|
----------------------------------------------------|
----------------------------------------------------|
--0~------------------------------------------------|
--0~------------------------------------------------|
--0~------------------------------------------------|

(2.18) Both Guitars
------------------------------------------------------|
------------------------------------------------------|
------------------------------------------------------|
--1-1-1-1-1-1-1-1-1-1-1-1-1-1-1-1-1-1-1-1-1-1-1-1-1---|
--1-1-1-1-1-1-1-1-1-1-1-1-1-1-1-1-1-1-1-1-1-1-1-1-1---|
--1-1-1-1-1-1-1-1-1-1-1-1-1-1-1-1-1-1-1-1-1-1-1-1-1---|

(2.27) Guitar 1
-------------------------------------------------------------|
-------------------------------------------------------------|
-------------------------------------------------------------|
---0-----3-2-----1-2-----3-2-1-2----0-----3-2----------------|
---0-----3-2-----1-2-----3-2-1-2----0-----3-2----------------|
---0-00003-2-00001-2-00003-2-1-2----0-00003-2-0000-----------|

-----------------------------|
-----------------------------|
-----------------------------|
-----------------------------|
---9-10p9-6-9-5-6p5-3-5------|
-----------------------------|

(2.27) Guitar 2
-------------------------------------------------------------|
-------------------------------------------------------------|
-------------------------------------------------------------|
---0~----------------------------------------PICK SLIDE!!----|
---0~---------------------------------------->>>>>>>>>>>>----|
---0~---------------------------------------->>>>>>>>>>>>----|


(REPEAT THE BEGINNING)

(2.57) Both Guitars
-----------------------------------------|
-----------------------------------------|
-----------------------------------------|
-----------------------------------------|
-----------------------------------------|
---000-0-0-000-000-0-0-000-000-0-0-------|

(3.07) Guitar 1
-------------------------------------------------------------|
-------------------------------------------------------------|
-7---------7---6-----3---6---7---------7---6-----9-----------|
-x---------x---x-----x---x---x---------x---x-----x-----------|
-5---------5---4-----1---4---5---------5---4-----7-----------|
---0-0-0-0-------0-0-----------0-0-0-0-------0-0---0-0-------|

(3.07) Guitar 2
-------------------------------------------------------------|
-------------------------------------------------------------|
-------------------------------------------------------------|
-0-----------------------------------------------------------|
-0-----------------------------------------------------------|
-0---0-0-0-0-0-0-0-0-0-0-0-0-0-0-0-0-0-0-0-0-0-0-0-0-0-------|

(3.18) Guitar 1
-------------------------------------------------------------|
-------------------------------------------------------------|
-7---------7---6-----3---6---7---------7---6-----9-----------|
-x---------x---x-----x---x---x---------x---x-----x-----------|
-5---------5---4-----1---4---5---------5---4-----7-----------|
---0-0-0-0-------0-0-----------0-0-0-0-------0-0---0-0-------|

(3.18) Guitar 2
-------------------------------------------------------------|
-------------------------------------------------------------|
-7-7-7-7-7-7-7-7-7-7-7-7-7-7-7-7-7-7-7-7-7-7-7-7-7-7-7-------|
-x-x-x-x-x-x-x-x-x-x-x-x-x-x-x-x-x-x-x-x-x-x-x-x-x-x-x-------|
-5-5-5-5-5-5-5-5-5-5-5-5-5-5-5-5-5-5-5-5-5-5-5-5-5-5-5-------|
-0-0-0-0-0-0-0-0-0-0-0-0-0-0-0-0-0-0-0-0-0-0-0-0-0-0-0-------|

(End)
Suggest correction
Give kudos to tab author, rate the tab!
1 2 3 4 5
comments
print report bad tab
1 comment total.
0 reply
ibanezeric82 103 Dec 08, 2011 07:49 PM

Close. But no cigar. See the higher rated one.

guest
You may want to rate the tab now too:
select rating
Wanna post a correction for this tab? Suggest correction