Oops, an error
Loading. Please wait.

Austen tab

553 views 6 this week
no commentswrite comment
1 2 3 4 5
x 5
add to favorites
×
Save as Personal and add changes to this tab that will be seen only by you. Learn more ›
×
You can save this tab as Personal to edit and correct it or add notes. All changes will be seen only by you. Learn more »
launch autoscroll
font size
0
reset
how to read this tab
guitar tuner
edit
Autoscroll
slow
fast
+/-
esc
set tempo
stop
Guitar 1 - Andy Westhead
Guitar 2 - Ben Biss

[Verse 1]
(Rhythm)
(Guitar 2)
"All the stories my father told..."
E|--------------------|-----------------------|--------------------|--------------------|
B|--------------------|-----------------------|--------------------|--------------------|
G|--------------------|-----------------------|--------------------|--4--4--4--4--4--4--|
D|--4--4--4--4--4--4--|--4--4--4--4--4--4--4--|--0--0--0--0--0--0--|--4--4--4--4--4--4--|
A|--4--4--4--4--4--4--|--4--4--4--4--4--4--4--|--0--0--0--0--0--0--|--2--2--2--2--2--2--|
D|--4--4--4--4--4--4--|--4--4--4--4--4--4--4--|--0--0--0--0--0--0--|--------------------|

[Pre-Chorus]
(Clean Leads)
(Guitar 1)
"You fear the silence so I keep the words coming..."
E|-----------------------12---------|
B|--10--9--10--9--10--9------9--10--|
G|----------------------------------|
D|----------------------------------|
A|----------------------------------|
D|----------------------------------|

[Pre-Chorus]
(Rhythm)
(Guitar 2)
"You fear the silence so I keep the words coming..."
E|--------------------|-----------------------|--------------------|--------------------|
B|--------------------|-----------------------|--------------------|--------------------|
G|--------------------|-----------------------|--------------------|--4--4--4--4--4--4--|
D|--4--4--4--4--4--4--|--4--4--4--4--4--4--4--|--0--0--0--0--0--0--|--4--4--4--4--4--4--|
A|--4--4--4--4--4--4--|--4--4--4--4--4--4--4--|--0--0--0--0--0--0--|--2--2--2--2--2--2--|
D|--4--4--4--4--4--4--|--4--4--4--4--4--4--4--|--0--0--0--0--0--0--|--------------------|

[Pre-Chorus Part 2]
(Rhythm)
(Guitar 2):
"We might expect it, But my heart's still filled with dread..."
E|--------------------------|--------------------------|--------------------|-----|
B|--------------------------|--------------------------|--------------------|-----|
G|--------------------------|--------------------------|--------------------|-----|
D|--0--0--0--0--0--0--0--0--|--0--0--0--0--0--0--0--0--|--2--2--2--2--2--2--|--3--|
A|--0--0--0--0--0--0--0--0--|--0--0--0--0--0--0--0--0--|--2--2--2--2--2--2--|--3--|
D|--0--0--0--0--0--0--0--0--|--0--0--0--0--0--0--0--0--|--2--2--2--2--2--2--|--3--|

[Chorus]
(Rhythm)
(Guitar 2)
"Give me strength to see you weak..."
E|-----------------------------------------|-----------------------------------------|
B|-----------------------------------------|-----------------------------------------|
G|-----------------------------------------|-----------------------------------------|
D|--4--4--2--2--0-----0--0--0--0--0--0--0--|--7--7--7--7--6-----6--6--6--6--6--6--6--|
A|--4--4--2--2--0-----0--0--0--0--0--0--0--|--7--7--7--7--6-----6--6--6--6--6--6--6--|
D|--4--4--2--2--0-----0--0--0--0--0--0--0--|--7--7--7--7--6-----6--6--6--6--6--6--6--|

[Chorus]
(Background Chord)
(Guitar 1)
"Give me strength to see you weak..."
E|--12--|
B|--10--|
G|--9---|
D|------|
A|------|
D|------|

[Chorus Part 2]
(Leads)
(Guitar 1)
"Cause I can't bear to let you leave..."
E|-----12---------12---------12--|-----12--------12--|
B|---------10---------10---------|--9------9---------|
G|--9----------9----------9------|------------9------|
D|-------------------------------|-------------------|
A|-------------------------------|-------------------|
D|-------------------------------|-------------------|

[Verse 2]
(Rhythm)
(Guitar 2)
"You've been claimed by your suffering..."
E|--------------------|-----------------------|--------------------|--------------------|
B|--------------------|-----------------------|--------------------|--------------------|
G|--------------------|-----------------------|--------------------|--4--4--4--4--4--4--|
D|--4--4--4--4--4--4--|--4--4--4--4--4--4--4--|--0--0--0--0--0--0--|--4--4--4--4--4--4--|
A|--4--4--4--4--4--4--|--4--4--4--4--4--4--4--|--0--0--0--0--0--0--|--2--2--2--2--2--2--|
D|--4--4--4--4--4--4--|--4--4--4--4--4--4--4--|--0--0--0--0--0--0--|--------------------|

[Verse 2]
(Clean Leads)
(Guitar 1)
"You've been claimed by your suffering..."
E|------------|------------|--------2--|
B|--------12--|--------10--|-----------|
G|-----9------|-----7------|-----4-----|
D|------------|--0---------|-----------|
A|--9---------|------------|--2--------|
D|------------|------------|-----------|

[Pre-Chorus Part 1]
(Clean Leads)
(Guitar 1)
"You fear the silence so I keep the words coming..."
E|-----------------------12---------|
B|--10--9--10--9--10--9------9--10--|
G|----------------------------------|
D|----------------------------------|
A|----------------------------------|
D|----------------------------------|

[Pre-Chorus Part]
(Rhythm)
(Guitar 2)
"You fear the silence so I keep the words coming..."
E|--------------------|-----------------------|--------------------|--------------------|
B|--------------------|-----------------------|--------------------|--------------------|
G|--------------------|-----------------------|--------------------|--4--4--4--4--4--4--|
D|--4--4--4--4--4--4--|--4--4--4--4--4--4--4--|--0--0--0--0--0--0--|--4--4--4--4--4--4--|
A|--4--4--4--4--4--4--|--4--4--4--4--4--4--4--|--0--0--0--0--0--0--|--2--2--2--2--2--2--|
D|--4--4--4--4--4--4--|--4--4--4--4--4--4--4--|--0--0--0--0--0--0--|--------------------|

[Pre Chorus Part 2]
(Rhythm)
(Guitar 2)
"We might expect it, But my heart's still filled with dread..."
E|--------------------------|--------------------------|--------------------|-----|
B|--------------------------|--------------------------|--------------------|-----|
G|--------------------------|--------------------------|--------------------|-----|
D|--0--0--0--0--0--0--0--0--|--0--0--0--0--0--0--0--0--|--2--2--2--2--2--2--|--3--|
A|--0--0--0--0--0--0--0--0--|--0--0--0--0--0--0--0--0--|--2--2--2--2--2--2--|--3--|
D|--0--0--0--0--0--0--0--0--|--0--0--0--0--0--0--0--0--|--2--2--2--2--2--2--|--3--|

[Pre-Chorus Part 2]
(Clean Leads)
(Guitar 1)
"We might expect it, But my heart's still filled with dread..."
E|----------------------------|
B|----------------------------|
G|--------6----------9----10--|
D|-----7----------7-------10--|
A|--5----------7----------8---|
D|----------------------------|


[Chorus]
(Rhythm)
(Guitar 2)
"Give me strength to see you weak..."
E|-----------------------------------------|-----------------------------------------|
B|-----------------------------------------|-----------------------------------------|
G|-----------------------------------------|-----------------------------------------|
D|--4--4--2--2--0-----0--0--0--0--0--0--0--|--7--7--7--7--6-----6--6--6--6--6--6--6--|
A|--4--4--2--2--0-----0--0--0--0--0--0--0--|--7--7--7--7--6-----6--6--6--6--6--6--6--|
D|--4--4--2--2--0-----0--0--0--0--0--0--0--|--7--7--7--7--6-----6--6--6--6--6--6--6--|

[Chorus]
(Background Chord)
(Guitar 1)
"Give me strength to see you weak..."
E|--12--|
B|--10--|
G|--9---|
D|------|
A|------|
D|------|

[Chorus Part 2]
(Leads)
(Guitar 1)
"Cause I can't bear to let you leave..."
E|-----12---------12---------12--|-----12--------12--|
B|---------10---------10---------|--9------9---------|
G|--9----------9----------9------|------------9------|
D|-------------------------------|-------------------|
A|-------------------------------|-------------------|
D|-------------------------------|-------------------|

[Pre-Bridge]
(High Chord)
(Guitar 1)
E|--12--|
B|--10--|
G|--9---|
D|------|
A|------|
D|------|

[Pre-Bridge]
(Rhythms)
(Guitar 2)
E|--------------------|
B|--------------------|
G|--------------------|
D|--4--4--0--0--2-----|
A|--4--4--0--0--2-----|
D|--4--4--0--0--2-----|

[Bridge]
(Rhythm)
(Guitar 2)
E|--------------------------|
B|--------------------------|
G|--------------------7--6--|
D|--4--4--0--0--2-----x--x--|
A|--4--4--0--0--2-----5--4--|
D|--4--4--0--0--2-----------|

[Bridge]
(Leads)
(Guitar 2)
E|--12--------------------|--12---------------------|
B|------10-----10--12--9--|------10-----10--14--12--|
G|----------9-------------|----------9--------------|
D|------------------------|-------------------------|
A|------------------------|-------------------------|
D|------------------------|-------------------------|

[Breakdown]
(Clean Leads)
(Guitar 2)
"Give me strength to see you weak..."
E|--5-----4-----2-----0-----0-----|--0-----0-----5----------|
B|--------------------------------|-------------------------|
G|-----2-----2-----2-----2-----2--|-----2-----2-----2--2\1--|
D|--------------------------------|-------------------------|
A|--------------------------------|-------------------------|
D|--------------------------------|-------------------------|

[Chorus]
(Rhythm)
(Guitar 2)
"Give me strength to see you weak..."
E|-----------------------------------------|-----------------------------------------|
B|-----------------------------------------|-----------------------------------------|
G|-----------------------------------------|-----------------------------------------|
D|--4--4--2--2--0-----0--0--0--0--0--0--0--|--7--7--7--7--6-----6--6--6--6--6--6--6--|
A|--4--4--2--2--0-----0--0--0--0--0--0--0--|--7--7--7--7--6-----6--6--6--6--6--6--6--|
D|--4--4--2--2--0-----0--0--0--0--0--0--0--|--7--7--7--7--6-----6--6--6--6--6--6--6--|

[Chorus]
(Background Chord)
(Guitar 1)
"Give me strength to see you weak..."
E|--12--|
B|--10--|
G|--9---|
D|------|
A|------|
D|------|

[Chorus Part 2]
(Leads)
(Guitar 1)
"Cause I can't bear to let you leave..."
E|-----12---------12---------12--|-----12--------12--|
B|---------10---------10---------|--9------9---------|
G|--9----------9----------9------|------------9------|
D|-------------------------------|-------------------|
A|-------------------------------|-------------------|
D|-------------------------------|-------------------|

[Outro]
(Rhythm)
(Guitar 2)
E|--------------------------|
B|--------------------------|
G|--------------------7--6--|
D|--4--4--0--0--2-----x--x--|
A|--4--4--0--0--2-----5--4--|
D|--4--4--0--0--2-----------|

[Outro]
(Leads)
(Guitar 2)
E|--12--------------------|--12---------------------|
B|------10-----10--12--9--|------10-----10--14--12--|
G|----------9-------------|----------9--------------|
D|------------------------|-------------------------|
A|------------------------|-------------------------|
D|------------------------|-------------------------|


************************************

| x  Dead note
| \  Slide down

************************************

            
            
Suggest correction
Creating personal tab
Creating personal tab
You can edit any tab online and save it as your Personal.

You can edit, replace or remove any tab part or add personal notes – all changes will be seen only by you.

Personal tabs can be accessed anytime from any device, even offline.
Learn more »
comments
print report bad tab
guest
You may want to rate the tab now too:
select rating
Wanna post a correction for this tab? Suggest correction