Oops, an error
Loading. Please wait.

Cheap Shots And Setbacks Tab

version 1
version 1

Intro

Whole song

7 views 3 this week
no commentswrite comment
1 2 3 4 5
3 more votes to show rating
add to favorites
launch autoscroll
font size
0
reset
how to read this tab
guitar tuner
Autoscroll
slow
fast
+/-
esc
set tempo
stop
Help us to improve Ultimate-Guitar.com Take our survey!
×
Author
Standard Tuning

One Guitar Option

(No Capo)
e|-----1-------1-------1-------1-------1---|
B|---1-------1-------1-------1-------1---1-|
G|(2)-----(2)-----(2)-----(2)-----(2)------| (x2)
D| 3---------------0-------1-------1-------|
A|---------3-------------------------------|
E|-----------------------------------------|

(or Capo 5)
e|-----------------------------------------|
B|-----1-------1-------1-------1-------1---|
G|---0-------0-------0-------0-------0---0-|
D|(2)-----(2)-----(2)-----(2)-----(2)------| (x2)
A| 3---------------0-------1-------1-------|
E|---------3-------------------------------|

(Two Guitars Option)
(Guitar 1)
e|----1-----1-----1-----1-----1---|
B|--1-----1-----1-----1-----1---1-|
G|2-----2-----2-----2-----2-------| (x2)
D|--------------------------------|
A|--------------------------------|
E|--------------------------------|

(Guitar 2)
e|--------------------------------|
B|--------------------------------|
G|--------------------------------| (x2)
D|3-----------0-------------------|
A|------3-----------1-----1-------|
E|--------------------------------|


************************************

| (n)  Ghost note  

************************************
Suggest correction
Give kudos to tab author, rate the tab!
1 2 3 4 5
comments
print report bad tab
guest
You may want to rate the tab now too:
select rating
Wanna post a correction for this tab? Suggest correction