Oops, an error
Loading. Please wait.

Curtains Close tab

433 views 9 this week
no commentswrite comment
1 2 3 4 5
2 more votes to show rating
add to favorites
×
Save as Personal and add changes to this tab that will be seen only by you. Learn more ›
×
You can save this tab as Personal to edit and correct it or add notes. All changes will be seen only by you. Learn more »
launch autoscroll
font size
0
reset
how to read this tab
guitar tuner
edit
Autoscroll
slow
fast
+/-
esc
set tempo
stop
About this tab version
Curtains Close by As It Is, with repeats included. Was this info helpful? Yes No
Tab for "Curtains Close" off As It Is' sophomore album 'okay.'

Guitar 1 - Andy Westhead
Guitar 2 - Ben Biss

[Intro/Verse]Main Riff(Guitar 2)(x5):
D#|-----------|-----------|-----------|-----------|
A#|-----7-----|-----5-----|-----------|-----------|
F#|--------7--|--------7--|-----6--7--|-----6--7--|
C#|--7--------|--7--------|--7--------|--7--------|
G#|-----------|-----------|-----------|-----------|
C#|-----------|-----------|-----------|-----------|

[Verse]Main Riff(Guitar 2):
"At Night..."
D#|------------|------------|
A#|--------10--|--------10--|
F#|-----7------|-----7------|
C#|--7---------|--7---------|
G#|------------|------------|
C#|------------|------------|

[Verse]Main Riff(Guitar 2)(x4):
"Scared Kids Sit On The Couch..."
D#|-----------|-----------|-----------|-----------|
A#|-----7-----|-----5-----|-----------|-----------|
F#|--------7--|--------7--|-----6--7--|-----6--7--|
C#|--7--------|--7--------|--7--------|--7--------|
G#|-----------|-----------|-----------|-----------|
C#|-----------|-----------|-----------|-----------|

[Intro/Verse]Delay Riff(Guitar 1):
D#|--17-----------------|
A#|------17---------15--|(This is played every now and then at random, listen
F#|-------------14------|carefully to know when to come in)
C#|---------------------|
G#|---------------------|
C#|---------------------|

[Chorus Part 1]Synth(Guitar 1):
"Looking For An Answer, The House Lights Rise..."
D#|--------------------------|
A#|--------------------------|
F#|-----7--6-----7--6-----6--|
C#|--7--------7--------7-----|
G#|--------------------------|
C#|--------------------------|

[Chorus Part 1]Rhythm(Guitar 2):
"That's Not Goodbye..."
D#|--------|
A#|--------|
F#|--4--2--|
C#|--4--2--|
G#|--2--0--|
C#|--------|

[Chorus Part 2]Rhythm(Guitar 2):
"We Watch The Curtains Close..."
D#|-----|-----|-----|-----|
A#|-----|-----|-----|-----|
F#|--7--|--6--|--4--|--2--|
C#|--7--|--7--|--4--|--2--|
G#|--5--|--4--|--2--|--0--|
C#|-----|-----|-----|-----|

[Chorus Part 2]Lead(Guitar 1):
"We Watch The Curtains Close..."
D#|-----|-----|------|-----------|
A#|-----|-----|------|-----------|
F#|--7--|--7--|--11--|--9/11--9--|
C#|--x--|--x--|--x---|--x-x---x--|
G#|--5--|--4--|--9---|--7/9---7--|
C#|-----|-----|------|-----------|

[Post-Chorus/Verse]Main Riff(Guitar 2)(x5):
D#|-----------|-----------|-----------|-----------|
A#|-----7-----|-----5-----|-----------|-----------|
F#|--------7--|--------7--|-----6--7--|-----6--7--|
C#|--7--------|--7--------|--7--------|--7--------|
G#|-----------|-----------|-----------|-----------|
C#|-----------|-----------|-----------|-----------|

[Post-Chorus/Verse]Delay Riff(Guitar 1):
D#|--17-----------------|
A#|------17---------15--|(This is played every now and then at random, listen
F#|-------------14------|carefully to know when to come in)
C#|---------------------|
G#|---------------------|
C#|---------------------|

[Chorus Part 1]Synth(Guitar 1):
"Looking For An Answer..."
D#|--------------------------|
A#|--------------------------|
F#|-----7--6-----7--6-----6--|
C#|--7--------7--------7-----|
G#|--------------------------|
C#|--------------------------|

[Chorus Part 1]Rhythm(Guitar 2):
"The House Lights Rise..."
D#|--------------------------|
A#|--------------------------|
F#|--------------------------|
C#|--9--9--9--7--7--7--7--7--|
G#|--9--9--9--7--7--7--7--7--|
C#|--9--9--9--7--7--7--7--7--|

D#|--------------------------------------------------|
A#|--------------------------------------------------|
F#|--------------------------------------------------|
C#|--5--5--5--5--5--5--5--5--9--9--9--7--7--7--7--7--|
G#|--5--5--5--5--5--5--5--5--9--9--9--7--7--7--7--7--|
C#|--5--5--5--5--5--5--5--5--9--9--9--7--7--7--7--7--|


[Chorus Part 1]Lead(Guitar 1):
"The House Lights Rise..."
D#|----------------------------|
A#|----------------------------|
F#|--11-11--11--9--9--9--9--9--|
C#|--x--x---x---x--x--x--x--x--|
G#|--9--9---9---7--7--7--7--7--|
C#|----------------------------|

D#|-----------------------------------------------------|
A#|-----------------------------------------------------|
F#|--7--7--7--7--7--7--7--7--11--11--11--9--9--9--9--9--|
C#|--x--x--x--x--x--x--x--x--x---x---x---x--x--x--x--x--|
G#|--5--5--5--5--5--5--5--5--9---9---9---7--7--7--7--7--|
C#|-----------------------------------------------------|

[Chorus Part 2]Rhythm(Guitar 2)(x2):
"We Watch The Curtains Close..."
D#|-----|-----|-----|-----|
A#|-----|-----|-----|-----|
F#|--7--|--6--|--4--|--2--|
C#|--7--|--7--|--4--|--2--|
G#|--5--|--4--|--2--|--0--|
C#|-----|-----|-----|-----|

[Chorus Part 2]Lead(Guitar 1)(x2):
"We Watch The Curtains Close..."
D#|-----|-----|------|-----------|
A#|-----|-----|------|-----------|
F#|--7--|--7--|--11--|--9/11--9--|
C#|--x--|--x--|--x---|--x-x---x--|
G#|--5--|--4--|--9---|--7/9---7--|
C#|-----|-----|------|-----------|

[Bridge]Rhythm(Guitar 2):
"Every Flooded Eye..."
D#|-----|-----|-----|-----|
A#|-----|-----|-----|-----|
F#|--5--|--5--|-----|-----|
C#|--5--|--5--|--5--|--5--|
G#|--3--|--3--|--5--|--5--|
C#|-----|-----|--5--|--5--|

[Bridge Continued]Rhythm(Guitar 2):
"With The Futures..."
D#|-----|-----|-----|-----|
A#|-----|-----|-----|-----|
F#|--5--|--5--|-----|-----|
C#|--5--|--5--|--5--|--7--|
G#|--3--|--3--|--5--|--7--|
C#|-----|-----|--5--|--7--|

[Bridge]Lead(Guitar 1):
"Every Flooded Eye..."
D#|--------10--------10-----10--|--------10--------10-----10--|----------10----------10------10--|
A#|--8--8------8--8------8------|--8--8------8--8------8------|--12--12------12--12------12------|
F#|-----------------------------|-----------------------------|----------------------------------|
C#|-----------------------------|-----------------------------|----------------------------------|
G#|-----------------------------|-----------------------------|----------------------------------|
C#|-----------------------------|-----------------------------|----------------------------------|

[Bridge Continued]Lead(Guitar 1):
"Hearts..."
D#|---------15------------15------------|
A#|--12/13---------12/13---------13\12--|
F#|-------------------------------------|
C#|-------------------------------------|
G#|-------------------------------------|
C#|-------------------------------------|

[Bridge Continued]Lead(Guitar 1):
"With The Futures..."
D#|--------10--------10-----10--|--------10--------10-----10--|----------10----------10------10--|
A#|--8--8------8--8------8------|--8--8------8--8------8------|--12--12------12--12------12------|
F#|-----------------------------|-----------------------------|----------------------------------|
C#|-----------------------------|-----------------------------|----------------------------------|
G#|-----------------------------|-----------------------------|----------------------------------|
C#|-----------------------------|-----------------------------|----------------------------------|

[Post-Chorus]Main Riff(Guitar 2)(x2):
D#|-----------|-----------|-----------|-----------|
A#|-----7-----|-----5-----|-----------|-----------|
F#|--------7--|--------7--|-----6--7--|-----6--7--|
C#|--7--------|--7--------|--7--------|--7--------|
G#|-----------|-----------|-----------|-----------|
C#|-----------|-----------|-----------|-----------|

[Chorus Part 1]Rhythm(Guitar 2):
"It Doesn't Always Matter..."
D#|--------------------------------------------------|
A#|--------------------------------------------------|
F#|--------------------------------------------------|
C#|--5--5--5--5--5--5--5--5--9--9--9--7--7--7--7--7--|
G#|--5--5--5--5--5--5--5--5--9--9--9--7--7--7--7--7--|
C#|--5--5--5--5--5--5--5--5--9--9--9--7--7--7--7--7--|


[Chorus Part 1]Lead(Guitar 1):
"It Doesn't Always Matter..."
D#|-----------------------------------------------------|
A#|-----------------------------------------------------|
F#|--7--7--7--7--7--7--7--7--11--11--11--9--9--9--9--9--|
C#|--x--x--x--x--x--x--x--x--x---x---x---x--x--x--x--x--|
G#|--5--5--5--5--5--5--5--5--9---9---9---7--7--7--7--7--|
C#|-----------------------------------------------------|

[Chorus Part 2]Rhythm(Guitar 2)(x2):
"We Watch The Curtains Close..."
D#|-----|-----|-----|-----|
A#|-----|-----|-----|-----|
F#|--7--|--6--|--4--|--2--|
C#|--7--|--7--|--4--|--2--|
G#|--5--|--4--|--2--|--0--|
C#|-----|-----|-----|-----|

[Chorus Part 2]Lead(Guitar 1)(x2):
"We Watch The Curtains Close..."
D#|-----|-----|------|-----------|
A#|-----|-----|------|-----------|
F#|--7--|--7--|--11--|--9/11--9--|
C#|--x--|--x--|--x---|--x-x---x--|
G#|--5--|--4--|--9---|--7/9---7--|
C#|-----|-----|------|-----------|

[Chorus Part 1]Rhythm(Guitar 2):
"It Doesn't Always Matter..."
D#|--------------------------------------------------|
A#|--------------------------------------------------|
F#|--------------------------------------------------|
C#|--5--5--5--5--5--5--5--5--9--9--9--7--7--7--7--7--|
G#|--5--5--5--5--5--5--5--5--9--9--9--7--7--7--7--7--|
C#|--5--5--5--5--5--5--5--5--9--9--9--7--7--7--7--7--|


[Chorus Part 1]Lead(Guitar 1):
"It Doesn't Always Matter..."
D#|-----------------------------------------------------|
A#|-----------------------------------------------------|
F#|--7--7--7--7--7--7--7--7--11--11--11--9--9--9--9--9--|
C#|--x--x--x--x--x--x--x--x--x---x---x---x--x--x--x--x--|
G#|--5--5--5--5--5--5--5--5--9---9---9---7--7--7--7--7--|
C#|-----------------------------------------------------|

[Chorus Part 2]Rhythm(Guitar 2)(x2):
"We Watch The Curtains Close..."
D#|-----|-----|-----|-----|
A#|-----|-----|-----|-----|
F#|--7--|--6--|--4--|--2--|
C#|--7--|--7--|--4--|--2--|
G#|--5--|--4--|--2--|--0--|
C#|-----|-----|-----|-----|

[Chorus Part 2]Lead(Guitar 1)(x2):
"We Watch The Curtains Close..."
D#|-----|-----|------|-----------|
A#|-----|-----|------|-----------|
F#|--7--|--7--|--11--|--9/11--9--|
C#|--x--|--x--|--x---|--x-x---x--|
G#|--5--|--4--|--9---|--7/9---7--|
C#|-----|-----|------|-----------|

***********************************
| /   Slide up
| x   Dead Note
***********************************

            
            
Suggest correction
Creating personal tab
Creating personal tab
You can edit any tab online and save it as your Personal.

You can edit, replace or remove any tab part or add personal notes – all changes will be seen only by you.

Personal tabs can be accessed anytime from any device, even offline.
Learn more »
Give kudos to tab author, rate the tab!
1 2 3 4 5
comments
print report bad tab
guest
You may want to rate the tab now too:
select rating
Wanna post a correction for this tab? Suggest correction