Oops, an error
Loading. Please wait.

No Way Out chords

850 views 12 this week
no commentswrite comment
1 2 3 4 5
x 3
add to favorites
×
Save as Personal and add changes to this tab that will be seen only by you. Learn more ›
×
You can save this tab as Personal to edit and correct it or add notes. All changes will be seen only by you. Learn more »
launch autoscroll
font size
0
reset
transpose
0
reset
display chords
guitar tuner
edit
Autoscroll
slow
fast
+/-
esc
set tempo
stop
Strumming
There is no strumming pattern for this song yet. and get +5 IQ
Capo on 3rd fret !!

[Verse]

e|------------------|------------------|-----------------------|-----------------------|
B|----------8-------|----------6-------|-------------11--------|-------------11--------|
G|------8-----8---8-|------8-----8---8-|--------8-------8----8-|--------8-------8----8-|  x6
D|--6-6---6-----6---|--8-8---8-----8---|--10-10---10------10---|--10-10---10------10---|  or you can play 
A|------------------|------------------|-----------------------|-----------------------|  chords.
E|------------------|------------------|-----------------------|-----------------------|


F               G                 Am
  Inside as the rain came pouring down
F                 G            Am
  It can’t wash away all this hurt that haunts me now
F                G                Am
  Inside as the rain came pouring down
F            G              Am
  I’m losing touch with the only soul I’ve found
F            G          Am
Desperate delusions are all I have
        F        G        Am
Just to keep me hanging on

[Chorus]
C   
 I shut my eyes, but my world’s still burning
F                  G
 I can’t escape, I feel it killing me                       x2
Am G   F
No way out
Here I am again                                  


[Verse]
F                   G               Am
  Choked up, but the pain came after all
F           G               Am
  I feel displaced in these once familiar walls 
F         G            Am
Patient I fall with no end in sight
        F       G       Am 
And the noose around my neck


[Chorus] 
C   
 I shut my eyes, but my world’s still burning
F                  G
 I can’t escape, I feel it killing me                       x2
Am G   F
No way out
Here I am again    


Then during all the spoken part you just play this
e|----------------------------------|      
B|----------------------------------|    x10
G|----------------------------------|   
D|--------------8-8-8---------------|  (3rd fret should be open string if you
A|--6-6-6-3-3-3-------3-3-3-8-8-8-8-|   have a capo)
E|----------------------------------|

And as I let hindsight translate nightmares into reality,
I begin to see myself for who I truly was,
somebody desperate,
somebody entirely out of their depth,
somebody beyond their abilities to cope.
And as I exhale out the pain,
I’m digesting the severity of the depression I felt,
the extent to which it claimed a piece of me,
how it’s left me emotionally vacant and painfully numb.
And now together,
my faults and my thoughts prey on me like vultures,
creeping from their comfortable distance,
never once exiting my line of vision.
And the facade I invite to amble whilst wearing my skin,
he isn’t me and he never will be me.
And I know that I fucked up,
but I want to grow from it.

Then 
e|------------------|------------------|-----------------------|-----------------------|
B|----------8-------|----------6-------|-------------11--------|--11~------------------|
G|------8-----8---8-|------8-----8---8-|--------8-------8----8-|---8~------------------|  x1
D|--6-6---6-----6---|--8-8---8-----8---|--10-10---10------10---|--10~------------------|   
A|------------------|------------------|-----------------------|-----------------------| 
E|------------------|------------------|-----------------------|-----------------------|

[Chorus] 
C   
 I shut my eyes, but my world’s still burning
F                  G
 I can’t escape, I feel it killing me                       x2
Am G   F
No way out
Here I am again  

[eND] 

HOPE THIS TAB HELPED YOU !!! HERE'S A VIDEO OF HOW I PLAY IT IF YOU'RE LOOKING FOR A STRUMMING PATTERN 
https://youtu.be/3LMhGjfr0-4 
Suggest correction
Creating personal tab
Creating personal tab
You can edit any tab online and save it as your Personal.

You can edit, replace or remove any tab part or add personal notes – all changes will be seen only by you.

Personal tabs can be accessed anytime from any device, even offline.
Learn more »
Give kudos to tab author, rate the tab!
1 2 3 4 5
comments
print report bad tab
guest
You may want to rate the tab now too:
select rating
Wanna post a correction for this tab? Suggest correction