Oops, an error
Loading. Please wait.

Okay tab

version 1
version 1

Whole song

  • Full Guitar Tab of 'Okay' by As It Is with both guitar parts in detail.
  • This is the acoustic version from idobi sessions. Capo on 3rd fret.
1,030 views 18 this week
2 commentsread comments
1 2 3 4 5
x 7
add to favorites
×
Save as Personal and add changes to this tab that will be seen only by you. Learn more ›
×
You can save this tab as Personal to edit and correct it or add notes. All changes will be seen only by you. Learn more »
launch autoscroll
font size
0
reset
how to read this tab
guitar tuner
edit
Autoscroll
slow
fast
+/-
esc
set tempo
stop
About this tab version
Full Guitar Tab of 'Okay' by As It Is with both guitar parts in detail. Was this info helpful? Yes No
This is full tab of As It Is' "okay." the title track off their sophomore album.


[Intro] (Guitar 1):
"I Don't Know If I've Been Worse..."
E|--------------------------------------5-----5-----|--------------------------------5-----|
B|--7-----7-----7-----7-----5-----5-----------------|--7-----7-----7-----7-----5--------5--|
G|-----7-----7-----7-----7-----7-----7-----7-----7--|-----7-----7-----7-----7-----7--------|
D|--------------------------------------------------|--------------------------------------|
A|--------------------------------------------------|--------------------------------------|
E|--------------------------------------------------|--------------------------------------|

Main Riff Part 1(Guitar 1):

E|--------------------------------------------------------------------|
B|--------------------------------------------------------------------|
G|-----------14--14--14--14--11--11--------------9--9--9--9--7--7/6---|
D|--5--5-----x---x---x---x---x---x------7--7-----x--x--x--x--x--x-x---|
A|--5--5-----12--12--12--12--9---9------7--7-----7--7--7--7--5--5/4---|
E|--5--5--------------------------------7--7--------------------------|

Main Riff Part 2 (Guitar 1):

E|-------------------------------------------------|
B|-------------------------------------------------|
G|-----------14--14--14--14--11--11-----11--14--9--|
D|--5--5-----x---x---x---x---x---x------x---x---x--|
A|--5--5-----12--12--12--12--9---9------9---12--7--|
E|--5--5-------------------------------------------|

Main Riff Rhythm(Guitar 2):

E|----------------------------------------|------------------------------|
B|----------------------------------------|------------------------------|
G|----------------------------------------|------------------------------|
D|--5--5-----0--0-----7--7-----9--9--9/7--|--5--5-----0--0-----9--12--7--|
A|--5--5-----0--0-----7--7-----9--9--9/7--|--5--5-----0--0-----9--12--7--|
E|--5--5-----0--0-----7--7-----9--9--9/7--|--5--5-----0--0-----9--12--7--|


Verse Cleans (Guitar 1):
"I Felt A Year's Worth Of Hurt..."
E|-----------------------------------------------------|
B|--------------------3-----------3--------------3--2--|
G|--------7-----------2-----------2-----------2--2--2--|
D|--------7--------0-----------0-----------0-----------|
A|-----5--------2-----------------------0--------------|
E|--5-----------------------0--------------------------|

[Pre-Chorus 1] (Both Guitars):
"I Don't Know If I've Been Worse.."
E|--------------------------------------------|
B|--------------------------------------------|
G|--------------------------------------------|
D|--5--5--------7--7--------5--5--------7--7--|
A|--5--5--------7--7--------5--5--------7--7--|
E|--5--5--------7--7--------5--5--------7--7--|

[Chorus] Leads (Guitar 1):
"I Don't Think That I'm Okay"
E|-----------------------------------------5-----5--------|---------------------------------------|
B|--7-----7--------------------5-----5--------------------|--7-----7------------------------------|
G|-----7-----7-----7--7--7--------7-----7-----7-----7-----|-----7-----7----7--7--7-----11--14--9--|
D|-----------------x--x--x--------------------------------|----------------x--x--x-----x---x---x--|
A|-----------------5--5--5--------------------------------|----------------5--5--5-----9---12--7--|
E|--------------------------------------------------------|---------------------------------------|

Chorus Rhythm:
"I Don't Think That I'm Okay"
E|------------------------------------------------|--------------------------------------|
B|------------------------------------------------|--------------------------------------|
G|------------------------------------------------|--------------------------------------|
D|--5--5--5--5--0--0--0--0--7--7--7--7-9--9--9/7--|--5--5--5--5--0--0--0--0----9--12--7--|
A|--5--5--5--5--0--0--0--0--7--7--7--7-9--9--9/7--|--5--5--5--5--0--0--0--0----9--12--7--|
E|--5--5--5--5--0--0--0--0--7--7--7--7-9--9--9/7--|--5--5--5--5--0--0--0--0----9--12--7--|



[Verse 2;] Part 2(Both Guitars):
"And How Foreign It Felt..." 
E|-----------------------|
B|-----------------------|
G|-----------------------|
D|--5-----9-----0-----7--|  (Play one beat of each chord open then
A|--5-----9-----0-----7--|  finish the measure with palm-muted 16th
E|--5-----9-----0-----7--|  rhythms)
    /     /     /     /


[Pre-Chorus 2] (Both Guitars):
E|------------------------------------|
B|------------------------------------|
G|--------7-----------9-------7-------| (Play the octave chords in rapid 16th
D|--5--5--x-----7--7--x----5--x----7--| Rhythms between the main power chords)
A|--5--5--5-----7--7--7----5--5----7--|
E|--5--5--------7--7-------5-------7--|

[Bridge]
"So Keep Your "It'll Get Betters...")
E|--------------------------------------------------|
B|--------------------------------------------------|
G|--------2-----------2-----------------------------|
D|-----0-----0-----0-----0--------7-----------7-----|
A|--2-----------0--------------5-----5-----5-----5--|
E|--------------------------5-----------0-----------|


Bridge Lead:
(Comes in after repeat)
E|--10-----9-----7-----5--------2h3h5--------2-----|
B|-------------------------------------3--------3--|
G|-------------------------------------------------|
D|-------------------------------------------------|
A|-------------------------------------------------|
E|-------------------------------------------------|

[Outro Riff:]

E|-------------------------|--------------------------|--------------------------------------|
B|-------------------------|--------------------------|--------------------------------------|
G|--11/12\11--11\7/14------|--11/12\11--11\9--9/6--7--|--11/12\11--11\7/14----11--14--9------|
D|--x--x--x----x-x-x-------|---x--x-x----x-x--x-x--x--|---x-x--x----x-x-x-----x---x---x------|
A|--9-/10\9----9\5/12------|---9/10\9----9\5--7\4--5--|---9/10\9----9\5/12----9---12--7------|
E|-------------------------|--------------------------|--------------------------------------|


***********************************
| /   Slide up
| \   Slide down
| x   Dead note
***********************************

            
            
Suggest correction
Creating personal tab
Creating personal tab
You can edit any tab online and save it as your Personal.

You can edit, replace or remove any tab part or add personal notes – all changes will be seen only by you.

Personal tabs can be accessed anytime from any device, even offline.
Learn more »
comments
print report bad tab
2 comments total.
+1 reply
michaelangelostevens 10 Feb 03, 2017 05:30 PM

Thanks dudski. Great tab. Don't know why it has so many view and so little likes. Maybe cuse all the viewers are noobs, and can't play?

+1 reply
picalowdo 185 Feb 22, 2017 01:09 AM

Incredible. (Thumbs up)

guest
You may want to rate the tab now too:
select rating
Wanna post a correction for this tab? Suggest correction