Oops, an error
Loading. Please wait.

Okay Acoustic tab

version 2
version 2

Whole song

  • Full Guitar Tab of 'Okay' by As It Is with both guitar parts in detail.
  • This is the acoustic version from idobi sessions. Capo on 3rd fret.
598 views 12 this week
no commentswrite comment
1 2 3 4 5
3 more votes to show rating
add to favorites
×
Save as Personal and add changes to this tab that will be seen only by you. Learn more ›
×
You can save this tab as Personal to edit and correct it or add notes. All changes will be seen only by you. Learn more »
launch autoscroll
font size
0
reset
how to read this tab
guitar tuner
edit
Autoscroll
slow
fast
+/-
esc
set tempo
stop
About this tab version
This is the acoustic version from idobi sessions. Capo on 3rd fret. Was this info helpful? Yes No
OKAY (ACOUSTIC) /// AS IT IS
Tabbed By Hanna M | instagram: @wildworldpilots

Acoustic version: 
idobi Sessions: https://www.youtube.com/watch?v=BzShGu0nT9M
Play along to get the rhythm

I haven't made that many tabs, so this is probably not 100% accurate
I think the chorus and the riffs need some work, but I'm pretty sure about the rest
Please suggest corrections or comment if I tabbed something wrong.
Hope you enjoy!


**Capo on 3rd fret**


[Intro]

    F                                             G
e|-------------------------------|------------------------------------|
B|-------------------------------|------------------------------------|
G|----------0--------------0-----|---------0---------------0----------|
D|------3--------------3---------|-----3------------------------------|
A|----0---------0----0---------0-|---0---------0-----2-3-------3------|
E|--1-----1---1----1-----1---1---|-1-----1---1----3------3---3--------|

   Am                              G 
e|-------------------------------|------------------------------------|
B|-------------------------------|------------------------------------|
G|----------0--------------0-----|---------0------------0-------0-----|
D|------0--------------0---------|------------------------------------|
A|----3---------3----3---------3-|---2-3-------3----3-------3---------|
E|--5-----5---5----5-----5---5---|-3-----3---3----3---3---0---0-------|


[Verse]

I felt a year's worth of hurt and sadness...
    F                                             G
e|-------------------------------|------------------------------------|
B|-------------------------------|------------------------------------|
G|----------0--------------0-----|---------0---------------0----------|
D|------3--------------3---------|-----3------------------------------|
A|----0---------0----0---------0-|---0---------0-----2-3-------3------|
E|--1-----1---1----1-----1---1---|-1-----1---1----3------3---3--------|

catching up with me
   Am                              G 
e|-------------------------------|------------------------------------|
B|-------------------------------|------------------------------------|
G|----------0--------------0-----|---------0------------0-------0-----|
D|------0--------------0---------|------------------------------------|
A|----3---------3----3---------3-|---2-3-------3----3-------3---------|
E|--5-----5---5----5-----5---5---|-3-----3---3----3---3---0---0-------|

The sky I painted, to silence the pain, it...
    F                                             G
e|-------------------------------|------------------------------------|
B|-------------------------------|------------------------------------|
G|----------0--------------0-----|---------0---------------0----------|
D|------3--------------3---------|-----3------------------------------|
A|----0---------0----0---------0-|---0---------0-----2-3-------3------|
E|--1-----1---1----1-----1---1---|-1-----1---1----3------3---3--------|

...is bleeding into grey.
   Am              F               G
e|-------------------------------|------------------------------------|
B|-------------------------------|------------------------------------|
G|----------0--------------0-----|---------0--------------------------|
D|------0--------------3---------|----------------------0h2-0---------|
A|----3---------3----0---------0-|---2-3-------3----3---------3-------|
E|--5-----5---5----1-----1---1---|-3-----3---3----3---3---------------|


[Chorus]

And I don't know if I've been worse, I don't know if I can..
    C                          G
e|---------------------------|----------------------------------------|
B|------1------------1-------|-----3------------3---------------------|
G|------0------------0-------|-----0------------0---------------------|
D|----------0------------0---|---------0------------0-----------------|
A|--3-3---3---3--3-3---3---3-|---3---3---3----3---3---3---------------|
E|---------------------------|-3------------3-------------------------|

...change
   Am         G            F
e|------0---------------|------3--------------------------------------|
B|--------3-------3-1---|------1--------------------------------------|
G|------0---------0-----|--------0---0------0-------------------------|
D|----------------------|----------------------0h2-0------------------|
A|--0-0-----------------|----------------------------3----------------|
E|------------3-3-----0-|--1-1-----1----1-1---------------------------|

But right now, I don't think, I don't think that I'm...
    C                          G
e|---------------------------|----------------------------------------|
B|------1------------1-------|-----3------------3---------------------|
G|------0------------0-------|-----0------------0---------------------|
D|----------0------------0---|---------0------------0-----------------|
A|--3-3---3---3--3-3---3---3-|---3---3---3----3---3---3---------------|
E|---------------------------|-3------------3-------------------------|

...okay...                      I don't think that I'm okay 
    Am       G            F
e|------0--------------|--3--------------------------------------------|
B|--------3------3-1---|--1--------------------------------------------|
G|------0--------0-----|--0--------------------------------------------|
D|---------------------|-----------------------------------------------|
A|--0-0----------------|-----------------------------------------------|
E|-----------3-3-----0-|--1--------------------------------------------|


[Bridge]

Keep your "it'll get better"s, and I'll keep mine "I'll be just fine"s
I'll show you flashes of color and hide behind buqets of lies
    G                    Am                   G                   F
e|--------------------|--------------------|--------------------|--------------------|
B|--------------------|--------------------|--------------------|--------------------|
G|------0--------0----|------0--------0----|------0--------0----|------0--------0----|   
D|------0--------0----|------0--------0----|------0--------0----|------0--------0----|   x 4
A|----2-3-2----2-3-2--|----3---3----3---3--|----2-3-2----2-3-2--|----3---3----3---3--|
E|--3--------3--------|--5--------5--------|--3--------3--------|--1--------1--------|


I don't know if I've been worse, I don't know if I can change
But right now, I don't think, I don't think that I'm okay

    F     G/B     Am  G      F      C     G/B    Am         G          F 
e|------|------|--0~------|------|------|------|-----0---------------|----3----------------------|
B|------|--3~--|--1~--3~--|------|--1~--|--3~--|-------3-------3-1---|----1----------------------|
G|--0~--|--0~--|------0~--|--0~--|--0~--|--0~--|-----0---------0-----|------0---0-----0----------|
D|--3~--|------|----------|--3~--|------|------|---------------------|------------------0h2-0----|
A|------|--2~--|--0~------|------|--3~--|--2~--|-0-0-----------------|------------------------3--|
E|--1~--|------|------3~--|--1~--|------|------|-----------3-3-----0-|-1-1----1---1-1------------|

(then play the chorus again)


[Ending]

...I don't think that I'm okay
    Am       G           F                                       G          C
e|------0-------------|------3------------3-------|-----3----------------|------|
B|--------3------3-1--|------1------------1-------|-----1------------0h1-|--3~--|
G|------0--------0----|--------0---0--------0---0-|-------0---0------0---|--2~--|
D|--------------------|---------------------------|----------------------|--0~--|
A|--0-0---------------|---------------------------|----------------------|--1~--|
E|-----------3-3----0-|--1-1-----1----1-1-----1---|-1-1-----1----3-3-----|--0~--|



            
            
Suggest correction
Creating personal tab
Creating personal tab
You can edit any tab online and save it as your Personal.

You can edit, replace or remove any tab part or add personal notes – all changes will be seen only by you.

Personal tabs can be accessed anytime from any device, even offline.
Learn more »
Give kudos to tab author, rate the tab!
1 2 3 4 5
comments
print report bad tab
guest
You may want to rate the tab now too:
select rating
Wanna post a correction for this tab? Suggest correction