Oops, an error
Loading. Please wait.

Patchwork Love tab

1,072 views 18 this week
no commentswrite comment
1 2 3 4 5
x 4
add to favorites
×
Save as Personal and add changes to this tab that will be seen only by you. Learn more ›
×
You can save this tab as Personal to edit and correct it or add notes. All changes will be seen only by you. Learn more »
launch autoscroll
font size
0
reset
how to read this tab
guitar tuner
edit
Autoscroll
slow
fast
+/-
esc
set tempo
stop
About this tab version
Full Guitar Tab of Patchwork Love, including the Keyboard part. Was this info helpful? Yes No
Full tab of "Patchwork Love" off of As It Is' Sophomore album "okay."

Guitar 1 - Andy Westhead
Guitar 2 - Ben Biss

[Intro]Clean Guitar(Guitar 1):
D#|---------------------------------------|-----------------------------------|
A#|---------------------------------------|-----------------------------------|
F#|--------2--------2--------2---------2--|--------2--------2--------2--------|
C#|-----0--------0--------0---------0-----|-----0--------0--------0-----0-----|
G#|--2---------------------------0--------|--2-----------------0--------------|
C#|-----------5--------0------------------|-----------5-----------------------|

[Intro Part 2]Rhythm Chords(Guitar 2):
D#|-----------------------------------------------|--------------------------------------------------|
A#|-----------------------------------------------|--------------------------------------------------|
F#|-----------------------------------------------|--------------------------------------------------|
C#|--9--9--9-----5--5--5-----0--0--0-----7--7--7--|--9--9--9-----5--5--5-----7--7--7-----7--7--7-----|
G#|--9--9--9-----5--5--5-----0--0--0-----7--7--7--|--9--9--9-----5--5--5-----7--7--7-----7--7--7-----|
C#|--9--9--9-----5--5--5-----0--0--0-----7--7--7--|--9--9--9-----5--5--5-----7--7--7-----7--7--7-----|

[Intro]Lead(Guitar 1):
D#|-----------------------------------------------|-----------------------------------|
A#|-----------------------------------------------|-----------------------------------|
F#|-----------------------------------------------|-----11/12\11/14---7/11/12\11\9----|
C#|--9--9--9-----5--5--5-----0--0--0-----7--7--7--|-----x--x-x--x-----x-x--x--x-x-----|
G#|--9--9--9-----5--5--5-----0--0--0-----7--7--7--|-----9/10\9/12-----5/9/10\9\7------|
C#|--9--9--9-----5--5--5-----0--0--0-----7--7--7--|-----------------------------------|

[Verse]Rhythm Chords(Guitar 1):
"I think it's time we talk..."
D#|-----------------------|-----------------------|
A#|-----------------------|-----------------------|
F#|-----------------------|-----------------------|
C#|--0-----7-----4-----5--|--9-----7-----5-----5--|
G#|--0-----7-----4-----5--|--9-----7-----5-----5--|
C#|--0-----7-----4-----5--|--9-----7-----5-----5--|

[Verse]Clean Riff(Guitar 2):
"You have a stubborn heart..."
D#|-------------------|-----------------|-----------------|-----------------|
A#|--10--------10-----|--5--------5-----|--7--------7-----|--8--------8-----|
F#|---------7------7--|--------7-----7--|--------7-----7--|--------7-----7--|
C#|-------------------|-----------------|-----------------|-----------------|
G#|-------------------|-----------------|-----------------|-----------------|
C#|-------------------|-----------------|-----------------|-----------------|

[Verse Continued]Clean Riff(Guitar 2):
"I know you want to, I know you used to..."
D#|-----------------|-----------------|-------|
A#|--7--------7-----|--5--------5-----|-------|
F#|--------7-----7--|--------7-----7--|--6/7--|
C#|-----------------|-----------------|-------|
G#|-----------------|-----------------|-------|
C#|-----------------|-----------------|-------|

[Chorus]Rhythm Chords(Guitar 2):
"And I won't let you waste everything you are..."
D#|-----------------------------------------------|--------------------------------------------------|
A#|-----------------------------------------------|--------------------------------------------------|
F#|-----------------------------------------------|--------------------------------------------------|
C#|--9--9--9-----5--5--5-----0--0--0-----7--7--7--|--9--9--9-----5--5--5-----7--7--7-----7--7--7-----|
G#|--9--9--9-----5--5--5-----0--0--0-----7--7--7--|--9--9--9-----5--5--5-----7--7--7-----7--7--7-----|
C#|--9--9--9-----5--5--5-----0--0--0-----7--7--7--|--9--9--9-----5--5--5-----7--7--7-----7--7--7-----|

[Chorus]Lead(Guitar 1):
"And I won't let you waste everything you are..."
D#|-----------------------------------------------|-----------------------------------|
A#|-----------------------------------------------|-----------------------------------|
F#|-----------------------------------------------|-----11/12\11/14---7/11/12\11\9----|
C#|--9--9--9-----5--5--5-----0--0--0-----7--7--7--|-----x--x-x--x-----x-x--x--x-x-----|
G#|--9--9--9-----5--5--5-----0--0--0-----7--7--7--|-----9/10\9/12-----5/9/10\9\7------|
C#|--9--9--9-----5--5--5-----0--0--0-----7--7--7--|-----------------------------------|

[Verse]Palm-Muted Rhythm Chords(Guitar 1):
D#|-----------------------|-----------------------|
A#|-----------------------|-----------------------|
F#|-----------------------|-----------------------|
C#|--0-----7-----4-----5--|--9-----7-----5-----5--|
G#|--0-----7-----4-----5--|--9-----7-----5-----5--|
C#|--0-----7-----4-----5--|--9-----7-----5-----5--|

[Verse]Clean Riff (x2)(Guitar 2):

D#|-------------------|-----------------|-----------------|-----------------|
A#|--10--------10-----|--5--------5-----|--7--------7-----|--8--------8-----|
F#|---------7------7--|--------7-----7--|--------7-----7--|--------7-----7--|
C#|-------------------|-----------------|-----------------|-----------------|
G#|-------------------|-----------------|-----------------|-----------------|
C#|-------------------|-----------------|-----------------|-----------------|

[Verse Continued]Clean Riff(Guitar 2):

D#|-----------------|-----------------|-------|
A#|--7--------7-----|--5--------5-----|-------|
F#|--------7-----7--|--------7-----7--|--6/7--|
C#|-----------------|-----------------|-------|
G#|-----------------|-----------------|-------|
C#|-----------------|-----------------|-------|

[Chorus]Rhythm Chords(Guitar 2):
"And I won't let you waste everything you are..."
D#|-----------------------------------------------|--------------------------------------------------|
A#|-----------------------------------------------|--------------------------------------------------|
F#|-----------------------------------------------|--------------------------------------------------|
C#|--9--9--9-----5--5--5-----0--0--0-----7--7--7--|--9--9--9-----5--5--5-----7--7--7-----7--7--7-----|
G#|--9--9--9-----5--5--5-----0--0--0-----7--7--7--|--9--9--9-----5--5--5-----7--7--7-----7--7--7-----|
C#|--9--9--9-----5--5--5-----0--0--0-----7--7--7--|--9--9--9-----5--5--5-----7--7--7-----7--7--7-----|

[Chorus]Lead(Guitar 1):
"And I won't let you waste everything you are..."
D#|-----------------------------------------------|-----------------------------------|
A#|-----------------------------------------------|-----------------------------------|
F#|-----------------------------------------------|-----11/12\11/14---7/11/12\11\9----|
C#|--9--9--9-----5--5--5-----0--0--0-----7--7--7--|-----x--x-x--x-----x-x--x--x-x-----|
G#|--9--9--9-----5--5--5-----0--0--0-----7--7--7--|-----9/10\9/12-----5/9/10\9\7------|
C#|--9--9--9-----5--5--5-----0--0--0-----7--7--7--|-----------------------------------|

[Chorus Part 2]Rhythm Chords(Guitar 2):
"'Cause it's like spring to winter..."
D#|--------------------------------|-----------------------|
A#|--------------------------------|-----------------------|
F#|--------------------------------|-----------------------|
C#|--4--4-----5--5-----0--0-----7--|--4--4-----5--5-----7--|
G#|--4--4-----5--5-----0--0-----7--|--4--4-----5--5-----7--|
C#|--4--4-----5--5-----0--0-----7--|--4--4-----5--5-----7--|

[Chorus]Rhythm Chords(Guitar 2):
"And I won't let you waste everything you are..."
D#|-----------------------------------------------|--------------------------------------------------|
A#|-----------------------------------------------|--------------------------------------------------|
F#|-----------------------------------------------|--------------------------------------------------|
C#|--9--9--9-----5--5--5-----0--0--0-----7--7--7--|--9--9--9-----5--5--5-----7--7--7-----7--7--7-----|
G#|--9--9--9-----5--5--5-----0--0--0-----7--7--7--|--9--9--9-----5--5--5-----7--7--7-----7--7--7-----|
C#|--9--9--9-----5--5--5-----0--0--0-----7--7--7--|--9--9--9-----5--5--5-----7--7--7-----7--7--7-----|

[Chorus]Lead(Guitar 1):
"And I won't let you waste everything you are..."
D#|-----------------------------------------------|-----------------------------------|
A#|-----------------------------------------------|-----------------------------------|
F#|-----------------------------------------------|-----11/12\11/14---7/11/12\11\9----|
C#|--9--9--9-----5--5--5-----0--0--0-----7--7--7--|-----x--x-x--x-----x-x--x--x-x-----|
G#|--9--9--9-----5--5--5-----0--0--0-----7--7--7--|-----9/10\9/12-----5/9/10\9\7------|
C#|--9--9--9-----5--5--5-----0--0--0-----7--7--7--|-----------------------------------|


[Bridge]Keyboard(x6)(Guitar 1):
D#|--10------10------10------10------|--9------9------9------9------|--10------10------10------10------|
A#|------10------10------10------10--|-----10-----10-----10-----10--|------10------10------10------10--|
F#|----------------------------------|------------------------------|----------------------------------|
C#|----------------------------------|------------------------------|----------------------------------|
G#|----------------------------------|------------------------------|----------------------------------|
C#|----------------------------------|------------------------------|----------------------------------|
                                                                                Play This Measure Twice^
[Bridge]Chords(x6)(Guitar 1):
D#|--2-----0-----------|
A#|--3-----2-----------|
F#|--4-----2-----7-----|
C#|--4-----2-----5-----|
G#|--2-----0-----5-----|
C#|--------------5-----|

[Breakdown|Chorus]Rhythm Chords(Guitar 2):
"And I won't let you waste everything you are..."
D#|-----------------------------------------------|--------------------------------------------------|
A#|-----------------------------------------------|--------------------------------------------------|
F#|-----------------------------------------------|--------------------------------------------------|
C#|--9--9--9-----5--5--5-----0--0--0-----7--7--7--|--9--9--9-----5--5--5-----7--7--7-----7--7--7-----|
G#|--9--9--9-----5--5--5-----0--0--0-----7--7--7--|--9--9--9-----5--5--5-----7--7--7-----7--7--7-----|
C#|--9--9--9-----5--5--5-----0--0--0-----7--7--7--|--9--9--9-----5--5--5-----7--7--7-----7--7--7-----|

[Chorus]Lead(Guitar 1):
"Your beating heart's been sinking into apathy"
D#|-----------------------------------------------|-----------------------------------|
A#|-----------------------------------------------|-----------------------------------|
F#|-----------------------------------------------|-----11/12\11/14---7/11/12\11\9----|
C#|--9--9--9-----5--5--5-----0--0--0-----7--7--7--|-----x--x-x--x-----x-x--x--x-x-----|
G#|--9--9--9-----5--5--5-----0--0--0-----7--7--7--|-----9/10\9/12-----5/9/10\9\7------|
C#|--9--9--9-----5--5--5-----0--0--0-----7--7--7--|-----------------------------------|


[Chorus Part 2]Rhythm Chords(Guitar 2):
"'Cause it's like spring to winter..."
D#|--------------------------------|-----------------------|
A#|--------------------------------|-----------------------|
F#|--------------------------------|-----------------------|
C#|--4--4-----5--5-----0--0-----7--|--4--4-----5--5-----7--|
G#|--4--4-----5--5-----0--0-----7--|--4--4-----5--5-----7--|
C#|--4--4-----5--5-----0--0-----7--|--4--4-----5--5-----7--|

[Chorus]Rhythm Chords(Guitar 2):
"And I won't let you waste everything you are..."
D#|-----------------------------------------------|--------------------------------------------------|
A#|-----------------------------------------------|--------------------------------------------------|
F#|-----------------------------------------------|--------------------------------------------------|
C#|--9--9--9-----5--5--5-----0--0--0-----7--7--7--|--9--9--9-----5--5--5-----7--7--7-----7--7--7-----|
G#|--9--9--9-----5--5--5-----0--0--0-----7--7--7--|--9--9--9-----5--5--5-----7--7--7-----7--7--7-----|
C#|--9--9--9-----5--5--5-----0--0--0-----7--7--7--|--9--9--9-----5--5--5-----7--7--7-----7--7--7-----|


[Chorus]Lead(Guitar 1):
"And I won't let you waste everything you are..."
D#|-----------------------------------------------|-----------------------------------|
A#|-----------------------------------------------|-----------------------------------|
F#|-----------------------------------------------|-----11/12\11/14---7/11/12\11\9----|
C#|--9--9--9-----5--5--5-----0--0--0-----7--7--7--|-----x--x-x--x-----x-x--x--x-x-----|
G#|--9--9--9-----5--5--5-----0--0--0-----7--7--7--|-----9/10\9/12-----5/9/10\9\7------|
C#|--9--9--9-----5--5--5-----0--0--0-----7--7--7--|-----------------------------------|

[Post-Chorus]Rhythm(Guitar 2):
D#|-----------------------------------|
A#|-----------------------------------|
F#|-----------------------------------|
C#|--9--9--9--5-----------0--0--0--7--|
G#|--9--9--9--5-----------0--0--0--7--|
C#|--9--9--9--5-----------0--0--0--7--|

[Post-Chorus]Leads(Guitar 1):
D#|----------------------------|---------------|
A#|----------------------------|---------------|
F#|--11/12\11/14--11/12\11/9---|--11/12\11/14--|
C#|--x--x-x-x------x--x-x-x----|--x--x-x--x----|
G#|--9/10\9/12-----9/10\9/7----|--9/10\9/12----|
C#|----------------------------|---------------|
                               ^(Repeat this first
                                 measure)
[End-On]:
D#|-----|
A#|-----|
F#|-----|
C#|--7--|
G#|--7--|
C#|--7--|

***********************************
| /   Slide up
| \   Slide down
| h   Hummer-on
| p   Pull-off
| x   Dead note
*********************************

            
            
Suggest correction
Creating personal tab
Creating personal tab
You can edit any tab online and save it as your Personal.

You can edit, replace or remove any tab part or add personal notes – all changes will be seen only by you.

Personal tabs can be accessed anytime from any device, even offline.
Learn more »
comments
print report bad tab
guest
You may want to rate the tab now too:
select rating
Wanna post a correction for this tab? Suggest correction