Oops, an error
Loading. Please wait.

Still Remembering intro tab

version 2
version 2

Intro

  • This just takes up 3 strings and 3 frets. Super ea... Show more
  • I based the tab off of this video but changed wher... Show more

Whole song

  • Tab for Still Remembering by As It Is. The intro is tabbed as 2 guitar parts.
  • Capo on 8th fret, Standard Tuning. Contains double... Show more
  • Easy to read and put to the song https://www.youtube.com/watch?v=sMwnwddE4vU.
80 views 3 this week
no commentswrite comment
1 2 3 4 5
3 more votes to show rating
add to favorites
×
Save as Personal and add changes to this tab that will be seen only by you. Learn more ›
×
You can save this tab as Personal to edit and correct it or add notes. All changes will be seen only by you. Learn more »
launch autoscroll
font size
0
reset
how to read this tab
guitar tuner
edit
Autoscroll
slow
fast
+/-
esc
set tempo
stop
[Intro]
e|---------------------------------------------------------------------------|
B|----1---------1----3---------3----3/5---------5----0---------0-------------|
G|---------0--------------0----------------0--------------0------------------|
D|---------------------------------------------------------------------------|
A|----0--------------2--------------2/3--------------------------------------|
E|---------------------------------------------------3-----------------------|

e|-------------------3-------------------------3-----------------------------|
B|----1---------1---------1-----1---------1----------1-----------------------|
G|---------0-------------------------0---------------------------------------|
D|---------------------------------------------------------------------------|
A|---------------------------------------------------------------------------|
E|----1--------------1--1----1--1--------------1--1-----1--------------------|


************************************

| /   Slide up

************************************
Suggest correction
Creating personal tab
Creating personal tab
You can edit any tab online and save it as your Personal.

You can edit, replace or remove any tab part or add personal notes – all changes will be seen only by you.

Personal tabs can be accessed anytime from any device, even offline.
Learn more »
Give kudos to tab author, rate the tab!
1 2 3 4 5
comments
print report bad tab
guest
You may want to rate the tab now too:
select rating
Wanna post a correction for this tab? Suggest correction