Oops, an error
Loading. Please wait.

Still Remembering tab

version 3
version 3

Whole song

  • Tab for Still Remembering by As It Is. The intro is tabbed as 2 guitar parts.
  • Capo on 8th fret, Standard Tuning. Contains double... Show more
  • Easy to read and put to the song https://www.youtube.com/watch?v=sMwnwddE4vU.
802 views 24 this week
7 commentsread comments
1 2 3 4 5
x 6
add to favorites
×
Save as Personal and add changes to this tab that will be seen only by you. Learn more ›
×
You can save this tab as Personal to edit and correct it or add notes. All changes will be seen only by you. Learn more »
launch autoscroll
font size
0
reset
how to read this tab
guitar tuner
edit
Autoscroll
slow
fast
+/-
esc
set tempo
stop
[Intro]
e|--------------------3-----3---|
B|1-1-3-3-5-5-0-0-1-1--1-1-1-1--|
G|-0---0---0---0---0------0-----|
D|------------------------------|x1 before lyrics come in 
A|------------------------------|
E|------------------------------|

[Verse]
my hearts as heavy, as these nights are long..
e|--------------------3-----3---|
B|1-1-3-3-5-5-0-0-1-1--1-1-1-1--|
G|-0---0---0---0---0------0-----|
D|------------------------------|x3
A|------------------------------|
E|------------------------------|


all that i meant, trying my best to just get by..
e|--------------------3------3--|
B|1-1-3-3-5-5-0-0-1-1--1-1-1-1--|
G|-0---0---0---0---0------0-----|
D|------------------------------|
A|------------------------------|
E|------------------------------|

[Chorus]
        C       G/B        F
Can you tell me what hurts more,
         Am       G       F
Is it remembering, or forgetting
     C         G/B      F
The past that once was ours
        Am       G         F               Am        
Am I remembering, still remembering, or forgetting
 
[Verse]
e|--------------------3-----3---|
B|1-1-3-3-5-5-0-0-1-1--1-1-1-1--|
G|-0---0---0---0---0------0-----|
D|------------------------------|x1 before lyrics come in 
A|------------------------------|
E|------------------------------|


I've kept your portrait, framed within my mind
e|--------------------3-----3---|
B|1-1-3-3-5-5-0-0-1-1--1-1-1-1--|
G|-0---0---0---0---0------0-----|
D|------------------------------|x3 
A|------------------------------|
E|------------------------------| 
 
heres your farewell, i wish you nothing but the best..
e|--------------------3------3--|
B|1-1-3-3-5-5-0-0-1-1--1-1-1-1--|
G|-0---0---0---0---0------0-----|
D|------------------------------|
A|------------------------------|
E|------------------------------|
 
[Chorus]
         C       G/B        F
Can you tell me what hurts more,
         Am       G       F
Is it remembering, or forgetting
     C         G/B      F
The past that once was ours
        Am       G         F               Am        
Am I remembering, still remembering, or forgetting

[Bridge]
e|-0-3---0-1-3-8-3-1-0-1-3-8-3-1|
B|----3-6-----------------------|
G|------------------------------|x2
D|------------------------------|
A|------------------------------|
E|------------------------------|

so my love goodbye..
e|-0-3---0-1-3-8-3-1-0-1-3-8-3-1|
B|----3-6-----------------------|
G|------------------------------|
D|------------------------------|
A|------------------------------|
E|------------------------------|

so my love goodbye..
e|-0-3---0-1-3-8-3-1~-----------|
B|----3-6-----------------------|
G|------------------------------|
D|------------------------------|
A|------------------------------|
E|------------------------------|

[Chorus]
tell me what hurts more is it remembering or forgetting..
e|-----------------3-3-3-3-3------|
B|1-1-3-3-5-5-0-0---1---1--1------|
G|-0---0---0---0------------------|
D|--------------------------------|
A|--------------------------------|
E|--------------------------------| 

     C         G/B      F
The past that once was ours
        Am       G         F                      
Am I remembering, still remembering
         C       G/B        F
Can you tell me what hurts more,
         Am       G       F
Is it remembering, or forgetting
     C         G/B      F
The past that once was ours
        Am       G         F                       
Am I remembering, still remembering
    Am       G         F                  Am     
Am I remembering, still remembering, or forgetting 

[Outro] 
e|--------------------3---------|
B|1-1-3-3-5-5-0-0-1-1--1-1~-----|
G|-0---0---0---0---0------------|
D|------------------------------|
A|------------------------------|
E|------------------------------|



************************************

| ~  Vibrato 

************************************
Suggest correction
Creating personal tab
Creating personal tab
You can edit any tab online and save it as your Personal.

You can edit, replace or remove any tab part or add personal notes – all changes will be seen only by you.

Personal tabs can be accessed anytime from any device, even offline.
Learn more »
comments
print report bad tab
7 comments total. Showing first comments.
-2 reply
blueenvelopes 10 Feb 24, 2017 10:35 PM

the bridge is supposed to be 0-1-3-8-1-0 not 0-1-3-8-0-1

0 reply
Natalie01 12 Feb 28, 2017 11:36 PM

Something else that I noticed that's very small is that it repeats the e string 3 b string 1 e string 3 triplet another time in the part after the bridge.

0 reply
c0c0nutshark 86 Mar 01, 2017 03:53 PM

I'll have a look :))

guest
You may want to rate the tab now too:
select rating
Wanna post a correction for this tab? Suggest correction