Oops, an error
Loading. Please wait.

Until I Return tab

version 1
version 1

Whole song

Interactive

400 views 6 this week
no commentswrite comment
1 2 3 4 5
3 more votes to show rating
add to favorites
×
Save as Personal and add changes to this tab that will be seen only by you. Learn more ›
×
You can save this tab as Personal to edit and correct it or add notes. All changes will be seen only by you. Learn more »
launch autoscroll
font size
0
reset
how to read this tab
guitar tuner
edit
Autoscroll
slow
fast
+/-
esc
set tempo
stop
[Intro]
(Chords)
(Guitar 2)
"You can't keep me sane when I'm out of sight..."
D#|-----------------------------------------------------------------------------------------------------|
A#|-----------------------------------------------------------------------------------------------------|
F#|--7--7--7--7--7--7--7--7--7--7-----9--9--9--9--9--6--6--6--6--6-----4--4--4--4--4--4--4--4--4--4-----|
C#|--7--7--7--7--7--7--7--7--7--7-----7--7--7--7--7--7--7--7--7--7-----2--2--2--2--2--2--2--2--2--2-----|
G#|--5--5--5--5--5--5--5--5--5--5-----0--0--0--0--0--0--0--0--0--0-----2--2--2--2--2--2--2--2--2--2-----|
C#|--------------------------------------------------------------------2--2--2--2--2--2--2--2--2--2-----|

A#|-----------------------------------|
A#|-----------------------------------|
F#|--7--7--7--7--7--7--7--7--7--7-----|
C#|--5--5--5--5--5--5--5--5--5--5-----|
G#|--5--5--5--5--5--5--5--5--5--5-----|
C#|--5--5--5--5--5--5--5--5--5--5-----|

[Intro Continued]
(Chords)
(Guitar 2)
"You can't keep me sane when I'm out of sight..."
A#|-----------------------------------------------------------------------------------------------------|
A#|-----------------------------------------------------------------------------------------------------|
F#|--7--7--7--7--7--7--7--7--7--7-----9--9--9--9--9--6--6--6--6--6-----4--4--4--4--4--4--4--4--4--4-----|
C#|--7--7--7--7--7--7--7--7--7--7-----7--7--7--7--7--7--7--7--7--7-----2--2--2--2--2--2--2--2--2--2-----|
G#|--9--9--9--9--9--9--9--9--9--9-----0--0--0--0--0--0--0--0--0--0-----2--2--2--2--2--2--2--2--2--2-----|
C#|--------------------------------------------------------------------2--2--2--2--2--2--2--2--2--2-----|

A#|--------------------------------|
A#|--------------------------------|
F#|--7--7--7--7--7--7--7--7--7--7--|
C#|--5--5--5--5--5--5--5--5--5--5--|
G#|--5--5--5--5--5--5--5--5--5--5--|
C#|--5--5--5--5--5--5--5--5--5--5--|

[Verse 1/Pre-chorus]
(Clean Riff)
(Guitar 1)
(x8)
"You treated the damage..."
D#|--------------------------|--------------------------|
A#|--------7-----------7-----|--------5-----------5-----|
F#|--7--7-----7--7--7-----7--|--7--7-----7--7--7-----7--|
C#|--------------------------|--------------------------|
G#|--------------------------|--------------------------|
C#|--------------------------|--------------------------|

[Verse 1]
(Chords)
(Guitar 2)
(x2)
"You treated the damage..."
D#|--------|--------|
A#|--------|--------|
F#|--------|--------|
C#|--0--0--|--2--2--|
G#|--0--0--|--2--2--|
C#|--0--0--|--2--2--|

[Pre-Chorus]
(Chords)
(Guitar 2)
(x2)
"I feel at home..."
D#|-----|-----|-----|-----|
A#|-----|-----|-----|-----|
F#|-----|-----|-----|-----|
C#|--0--|--7--|--2--|--5--|
G#|--0--|--7--|--2--|--5--|
C#|--0--|--7--|--2--|--5--|

[Chorus]
(Chords)
(Guitar 2)
"You can't keep me sane when I'm out of sight..."
D#|-----------------------------------------------------------------------------------------------------|
A#|-----------------------------------------------------------------------------------------------------|
F#|--7--7--7--7--7--7--7--7--7--7-----9--9--9--9--9--6--6--6--6--6-----4--4--4--4--4--4--4--4--4--4-----|
C#|--7--7--7--7--7--7--7--7--7--7-----7--7--7--7--7--7--7--7--7--7-----2--2--2--2--2--2--2--2--2--2-----|
G#|--5--5--5--5--5--5--5--5--5--5-----0--0--0--0--0--0--0--0--0--0-----2--2--2--2--2--2--2--2--2--2-----|
C#|--------------------------------------------------------------------2--2--2--2--2--2--2--2--2--2-----|

A#|-----------------------------------|
A#|-----------------------------------|
F#|--7--7--7--7--7--7--7--7--7--7-----|
C#|--5--5--5--5--5--5--5--5--5--5-----|
G#|--5--5--5--5--5--5--5--5--5--5-----|
C#|--5--5--5--5--5--5--5--5--5--5-----|

[Chorus Continued]
(Chords)
(Guitar 2)
"You can't keep me sane when I'm out of sight..."
A#|-----------------------------------------------------------------------------------------------------|
A#|-----------------------------------------------------------------------------------------------------|
F#|--7--7--7--7--7--7--7--7--7--7-----9--9--9--9--9--6--6--6--6--6-----4--4--4--4--4--4--4--4--4--4-----|
C#|--7--7--7--7--7--7--7--7--7--7-----7--7--7--7--7--7--7--7--7--7-----2--2--2--2--2--2--2--2--2--2-----|
G#|--9--9--9--9--9--9--9--9--9--9-----0--0--0--0--0--0--0--0--0--0-----2--2--2--2--2--2--2--2--2--2-----|
C#|--------------------------------------------------------------------2--2--2--2--2--2--2--2--2--2-----|

A#|--------------------------------|
A#|--------------------------------|
F#|--7--7--7--7--7--7--7--7--7--7--|
C#|--5--5--5--5--5--5--5--5--5--5--|
G#|--5--5--5--5--5--5--5--5--5--5--|
C#|--5--5--5--5--5--5--5--5--5--5--|

[Chorus Continued]
(Leads)
(Guitar 1)
"You can't keep me sane when I'm out of sight..."
D#|-------------------15-----17--|
A#|--14/15-----17----------------|
F#|------------------------------|
C#|------------------------------|
G#|------------------------------|
C#|------------------------------|

[Hook]
(Main Riff)
(Guitar 1)
(x2)
D#|-----5----------------------|-----5--------------|-----5----------------------|--------------------|
A#|-----------5-----5-----5h7--|--------------------|-----------5-----5-----5h7--|--------------------|
F#|--7-----7-----7-----7-------|--7-----7--6--6--4--|--7-----7-----7-----7-------|--7--7--7--7--7--7--|
C#|----------------------------|--------------------|----------------------------|--------------------|
G#|----------------------------|--------------------|----------------------------|--------------------|
C#|----------------------------|--------------------|----------------------------|--------------------|

[Hook]
(Chords)
(Guitar 2)
(x2)
D#|-----|-----|-----|-----|
A#|-----|-----|-----|-----|
F#|-----|-----|-----|-----|
C#|--0--|--7--|--2--|--5--|
G#|--0--|--7--|--2--|--5--|
C#|--0--|--7--|--2--|--5--|

[Verse 2/Pre-Chorus]
(Chords)
(Guitar 2)
(x4)
"My life's been unraveling..."
D#|-----|-----|-----|-----|
A#|-----|-----|-----|-----|
F#|-----|-----|-----|-----|
C#|--0--|--7--|--2--|--5--|
G#|--0--|--7--|--2--|--5--|
C#|--0--|--7--|--2--|--5--|

[Verse 2]
(Clean Riff)
(Guitar 1)
(x4)
"My life's been unraveling..."
D#|--------------------------|--------------------------|
A#|--------7-----------7-----|--------5-----------5-----|
F#|--7--7-----7--7--7-----7--|--7--7-----7--7--7-----7--|
C#|--------------------------|--------------------------|
G#|--------------------------|--------------------------|
C#|--------------------------|--------------------------|

[Pre-Chorus]
(Riff)
(Guitar 1)
(x2)
"I feel at home when..."
D#|--10--10--10--10--10--10--10--10--9--9--9--9--9--9--9--9--10--10--10--10--10--10--10--10--|
A#|------------------------------------------------------------------------------------------|
F#|------------------------------------------------------------------------------------------|
C#|------------------------------------------------------------------------------------------|
G#|------------------------------------------------------------------------------------------|
C#|------------------------------------------------------------------------------------------|

D#|--10--14--10--10--12--10--12/14--|
A#|---------------------------------|
F#|---------------------------------|
C#|---------------------------------|
G#|---------------------------------|
C#|---------------------------------|

[Fill]
(Riff)
(Guitar 1)
D#|---------------------------|
A#|---------------------------|
F#|--7--7--7--9--9--9--12\11--|
C#|--x--x--x--x--x--x--x------|
G#|--5--5--5--7--7--7--10\9---|
C#|---------------------------|

[Chorus]
(Chords)
(Guitar 2)
"You can't keep me sane when I'm out of sight..."
D#|-----------------------------------------------------------------------------------------------------|
A#|-----------------------------------------------------------------------------------------------------|
F#|--7--7--7--7--7--7--7--7--7--7-----9--9--9--9--9--6--6--6--6--6-----4--4--4--4--4--4--4--4--4--4-----|
C#|--7--7--7--7--7--7--7--7--7--7-----7--7--7--7--7--7--7--7--7--7-----2--2--2--2--2--2--2--2--2--2-----|
G#|--5--5--5--5--5--5--5--5--5--5-----0--0--0--0--0--0--0--0--0--0-----2--2--2--2--2--2--2--2--2--2-----|
C#|--------------------------------------------------------------------2--2--2--2--2--2--2--2--2--2-----|

A#|-----------------------------------|
A#|-----------------------------------|
F#|--7--7--7--7--7--7--7--7--7--7-----|
C#|--5--5--5--5--5--5--5--5--5--5-----|
G#|--5--5--5--5--5--5--5--5--5--5-----|
C#|--5--5--5--5--5--5--5--5--5--5-----|

[Chorus Continued]
(Chords)
(Guitar 2)
"You can't keep me sane when I'm out of sight..."
A#|-----------------------------------------------------------------------------------------------------|
A#|-----------------------------------------------------------------------------------------------------|
F#|--7--7--7--7--7--7--7--7--7--7-----9--9--9--9--9--6--6--6--6--6-----4--4--4--4--4--4--4--4--4--4-----|
C#|--7--7--7--7--7--7--7--7--7--7-----7--7--7--7--7--7--7--7--7--7-----2--2--2--2--2--2--2--2--2--2-----|
G#|--9--9--9--9--9--9--9--9--9--9-----0--0--0--0--0--0--0--0--0--0-----2--2--2--2--2--2--2--2--2--2-----|
C#|--------------------------------------------------------------------2--2--2--2--2--2--2--2--2--2-----|

A#|--------------------------------|
A#|--------------------------------|
F#|--7--7--7--7--7--7--7--7--7--7--|
C#|--5--5--5--5--5--5--5--5--5--5--|
G#|--5--5--5--5--5--5--5--5--5--5--|
C#|--5--5--5--5--5--5--5--5--5--5--|

[Chorus Continued]
(Leads)
(Guitar 1)
"You can't keep me sane when I'm out of sight..."
D#|-------------------15-----17--|
A#|--14/15-----17----------------|
F#|------------------------------|
C#|------------------------------|
G#|------------------------------|
C#|------------------------------|

[Hook]
(Main Riff)
(Guitar 1)
(x2)
D#|-----5----------------------|-----5--------------|-----5----------------------|--------------------|
A#|-----------5-----5-----5h7--|--------------------|-----------5-----5-----5h7--|--------------------|
F#|--7-----7-----7-----7-------|--7-----7--6--6--4--|--7-----7-----7-----7-------|--7--7--7--7--7--7--|
C#|----------------------------|--------------------|----------------------------|--------------------|
G#|----------------------------|--------------------|----------------------------|--------------------|
C#|----------------------------|--------------------|----------------------------|--------------------|

[Hook]
(Chords)
(Guitar 2)
(x2)
D#|-----|-----|-----|-----|
A#|-----|-----|-----|-----|
F#|-----|-----|-----|-----|
C#|--0--|--7--|--2--|--5--|
G#|--0--|--7--|--2--|--5--|
C#|--0--|--7--|--2--|--5--|

[Bridge]
(Chords)
(Guitar 2)
"Keep me in your mind..."
D#|-----|-----|-----|-----|
A#|-----|-----|-----|-----|
F#|-----|-----|-----|-----|
C#|--9--|--5--|--0--|--0--|
G#|--9--|--5--|--0--|--0--|
C#|--9--|--5--|--0--|--0--|

[Bridge]
(Tremolo Picked Notes)
(Guitar 1)
"Keep me in your mind..."
D#|-----|-----|-----|-----|-----|-----|-----|------|
A#|-----|-----|--7--|--5--|-----|-----|-----|--10--|
F#|--7--|-----|-----|-----|--7--|-----|--6--|------|
C#|-----|--9--|-----|-----|-----|--9--|-----|------|
G#|-----|-----|-----|-----|-----|-----|-----|------|
C#|-----|-----|-----|-----|-----|-----|-----|------|

[Verse 3]
(Clean Riff)
(Guitar 2)
(x4)
"You treated the damage..."
D#|--------------------------|--------------------------|
A#|--------7-----------7-----|--------5-----------5-----|
F#|--7--7-----7--7--7-----7--|--7--7-----7--7--7-----7--|
C#|--------------------------|--------------------------|
G#|--------------------------|--------------------------|
C#|--------------------------|--------------------------|

[Verse 3]
(Leads)
(Guitar 1)
"The stitches and bandage..."
D#|-------------------15-----17--|
A#|--14/15-----17----------------|
F#|------------------------------|
C#|------------------------------|
G#|------------------------------|
C#|------------------------------|

[Final Chorus]
(Chords)
(Both Guitars)
(x4)
D#|-----|-----|-----|-----|
A#|-----|-----|-----|-----|
F#|-----|-----|-----|-----|
C#|--0--|--7--|--2--|--5--|
G#|--0--|--7--|--2--|--5--|
C#|--0--|--7--|--2--|--5--|

[Final Chorus Continued]
(Riff)
(Guitar 1)
(x4)
"You can't keep me sane when I'm out of sight..."
D#|------17-----------------------------|------17------------------|
A#|--------------17------17------17h19--|--------------------------|
F#|--19------19------19------19---------|--19------19--18--18--15--|
C#|-------------------------------------|--------------------------|
G#|-------------------------------------|--------------------------|
C#|-------------------------------------|--------------------------|


************************************

| /  Slide up
| h  Hammer-on
| \  Slide down
| x  Dead note  

************************************

            
            
Suggest correction
Creating personal tab
Creating personal tab
You can edit any tab online and save it as your Personal.

You can edit, replace or remove any tab part or add personal notes – all changes will be seen only by you.

Personal tabs can be accessed anytime from any device, even offline.
Learn more »
Give kudos to tab author, rate the tab!
1 2 3 4 5
comments
print report bad tab
guest
You may want to rate the tab now too:
select rating
Wanna post a correction for this tab? Suggest correction