Oops, an error
Loading. Please wait.

Winters Weather tab

version 1
version 1

Whole song

2,765 views 21 this week
3 commentsread comments
1 2 3 4 5
x 3
add to favorites
×
Save as Personal and add changes to this tab that will be seen only by you. Learn more ›
×
You can save this tab as Personal to edit and correct it or add notes. All changes will be seen only by you. Learn more »
launch autoscroll
font size
0
reset
how to read this tab
guitar tuner
edit
Autoscroll
slow
fast
+/-
esc
set tempo
stop
Artist - As It Is 
Song - Winters Weather
Album - Never Happy Ever After (Deluxe Edition)
Tabbed by Emmet Ahern

Check out my cover here: https://www.youtube.com/watch?v=FGUXClY9ExA (This will be helpful 
learning the song!)


[Intro/Verse 1]

Guitar 1 (0:05)
e|5-----5-----5----5--------|
B|-3-3---3-3---3-3---3-3-3--|
G|--------------------------|
D|--------------------------|
A|--------------------------|
E|--------------------------|

Guitar 2 (0:22)
e|-----------------|
B|-----------------|
G|----7-------9~---|
D|7/9-----7/9------|
A|-----------------|
E|-----------------|

Guitar 3 (0:33)
e|----|
B|-7--|
G|-x--|
D|-5--|
A|----|
E|----|


[Chorus 1] 

Guitar 1 (0:45)
e|----------------------|
B|----------------------|
G|----------------------|
D|5----7----9----7------|(x2)
A|5(x6)7(x6)9(x6)7(x6)--|
E|5----7----9----7------|


[Repeat 1 phrase of first verse] (0:57)


[Verse 2]

Guitar 1 (1:02)
e|---|
B|---|
G|-7-|
D|-x-|(Repeat until 1:13)
A|-5-|
E|---|

e|---------------------------------------------------------------------|
B|---------------------------------------------------------------------|
G|---------------------------------------------------------------------|
D|-9-9-9-9-9-9-9-9-9--7-7-7-7-7-7-7-7--5-5-5-5-5-5-5-5-5-5-5-5-5-5-5-5-|(x2)
A|-9-9-9-9-9-9-9-9-9--7-7-7-7-7-7-7-7--5-5-5-5-5-5-5-5-5-5-5-5-5-5-5-5-|
E|-9-9-9-9-9-9-9-9-9--7-7-7-7-7-7-7-7--5-5-5-5-5-5-5-5-5-5-5-5-5-5-5-5-|
   . . . . . . . . .  . . . . . . . .  . . . . . . . . . . . . . . . .


[Chorus 2] (1:25)

Guitar 1
e|----------------------|
B|----------------------|
G|----------------------|
D|5----7----9----7------|
A|5(x6)7(x6)9(x6)7(x6)--|
E|5----7----9----7------|

e|-----------------------------------------------|
B|-----6-6-6--------6-7-7------6-6-6-------6-7-7-|
G|-----7-7-7--------7-7-7------7-7-7-------7-7-7-|x2
D|5-5-5-------7-7-7------9-9-9-------7-7-7-------|
A|5-5-5-------7-7-7------9-9-9-------7-7-7-------|
E|5-5-5-------7-7-7------9-9-9-------7-7-7-------|

e|----------------------|
B|----------------------|
G|----------------------|
D|5----7----9----7------|
A|5(x6)7(x6)9(x6)7(x6)--|
E|5----7----9----7------|

Guitar 2
e|------|
B|---10-|
G|7/9---|
D|------|
A|------|
E|------|


[Bridge] 

(1:51)
e|----------------|-----------------|------------------|-----------------|
B|-----7----------|------5----------|------7-----------|-----5-----------|
G|--------7h9-(x2)|---------6h7-(x2)|----------7h9-(x2)|--------6h7-(x2)-|
D|-999--99--------|---777-77--------|--555---55--------|--555-55---------|
A|----------------|-----------------|------------------|-----------------|
E|----------------|-----------------|------------------|-----------------|

e|----------------------------------------------------------|
B|----------------------------------------------------------|
G|----------------------------------------------------------|
D|-9--7--5------------7-7-7-7-7-7-7-7-7-7-7-7-7-7-7-7-7-7---|
A|-9--7--5------------7-7-7-7-7-7-7-7-7-7-7-7-7-7-7-7-7-7---|
E|-9--7--5------------7-7-7-7-7-7-7-7-7-7-7-7-7-7-7-7-7-7---|
                      . . . . . . . . . . . . . . . . .

e|-----------------------------------------|
B|------5-/-7-\-5-----5-5-5-5-5-5-5-5-5-5--|
G|---------------------7-7-7-7-7-7-7-7-77--|
D|-----------------------------------------|
A|-----------------------------------------|
E|-----------------------------------------|


[Chorus 3] 

Guitar 1 (2:38)
e|------------------------------------------------------------------------|
B|------------------------------------------------------------------------|
G|------------------------------------------------------------------------|
D|9-9-9-9-9-9-9-9--7-7-7-7-7-7-7-7--5-5-5-5-5-5-5-5-5--7-7-7-7-7-7-7-7----|(x2)
A|9-9-9-9-9-9-9-9--7-7-7-7-7-7-7-7--5-5-5-5-5-5-5-5-5--7-7-7-7-7-7-7-7----|
E|9-9-9-9-9-9-9-9--7-7-7-7-7-7-7-7--5-5-5-5-5-5-5-5-5--7-7-7-7-7-7-7-7----|


e|-----------------------------------------------|
B|-----6-6-6--------6-7-7------6-6-6-------6-7-7-|
G|-----7-7-7--------7-7-7------7-7-7-------7-7-7-|
D|5-5-5-------7-7-7------9-9-9-------7-7-7-------|
A|5-5-5-------7-7-7------9-9-9-------7-7-7-------|
E|5-5-5-------7-7-7------9-9-9-------7-7-7-------|

e|-------------------------------------------------------------------------|
G|-------------------------------------------------------------------------|
B|-------------------------------------------------------------------------|
D|9-9-9-9-9-9-9-9--7-7-7-7-7-7-7-7--5-5-5-5-5-5-5-5-5--7-7-7-7-7-7-7--7----|
A|9-9-9-9-9-9-9-9--7-7-7-7-7-7-7-7--5-5-5-5-5-5-5-5-5--7-7-7-7-7-7-7--7----|
E|9-9-9-9-9-9-9-9--7-7-7-7-7-7-7-7--5-5-5-5-5-5-5-5-5--7-7-7-7-7-7-7--7----|

e|------------------------------------|
B|------------------------------------|
G|------------------------------------|
D|5--5-5---7--7-7---9--9-9---7-7------|
A|5--5-5---7--7-7---9--9-9---7-7------|
E|5--5-5---7--7-7---9--9-9---7-7------|

e|-------------------------------|
B|--3-------3-------3------------|
G|-6-------6-------6---6-6-------|
D|7-------7-------7----7-7-------|
A|-------------------------------|
E|-------------------------------|



********************************************
| .   Palm mute
| x   Dead note
| g   Grace note
| (n) Ghost note
| h   Hammer-on
| pb  Pre-bend
| pbr Pre-bend release
| /   Slide up
| ~   Vibrato
************************************
Suggest correction
Creating personal tab
Creating personal tab
You can edit any tab online and save it as your Personal.

You can edit, replace or remove any tab part or add personal notes – all changes will be seen only by you.

Personal tabs can be accessed anytime from any device, even offline.
Learn more »
Give kudos to tab author, rate the tab!
1 2 3 4 5
comments
print report bad tab
3 comments total.
0 reply
fauvinette69 10 Apr 24, 2016 06:14 AM

Would it be possible for you to post the chords?
Or the ones we'd have to play without tuning our guitar in drop D?

0 reply
stephanie.hill. 10 May 02, 2016 12:58 PM

for the chorus tabs, its the other way around

-1 reply
stephanie.hill. 10 May 02, 2016 12:59 PM

999/ 777/ 555/ 777/

guest
You may want to rate the tab now too:
select rating
Wanna post a correction for this tab? Suggest correction