Oops, an error
Loading. Please wait.

You The Room The Devil On Your Shoulder tab

223 views 6 this week
2 commentsread comments
1 2 3 4 5
x 3
add to favorites
×
Save as Personal and add changes to this tab that will be seen only by you. Learn more ›
×
You can save this tab as Personal to edit and correct it or add notes. All changes will be seen only by you. Learn more »
launch autoscroll
font size
0
reset
how to read this tab
guitar tuner
edit
Autoscroll
slow
fast
+/-
esc
set tempo
stop
No Capo
Tuned to Drop D

[Guitar 1]
D|---------------------------|
A|---------------------------|
F|------------------2--------|
C|------7-----7---0-------0--|
G|----5-----5---2-----0-4----|
D|--4-----5------------------|

Repeat that threw out most of the song.

[Guitar 2]
D|------------|  |----|  |----------------|
A|----7h8-10--|  |----|  |----------------|
F|--7---------|  |-7--|  |--7/11-6-6~-----|
C|------------|  |----|  |----------------|
G|------------|  |----|  |----------------|
D|------------|  |----|  |----------------|
     Pt1       Pt2         Pt3

Sometimes guitar add part 1 with part 2 and sometimes with part 3.
You'll have to relate to the actual song for that.

[Middle 8]
[Guitar 1]
D|---------------------------------------------------------------------|
A|---------------------------------------------------------------------|
F|------2-------2-------2-------2-------2-------2-------2-------2------|
C|----0---0---0---0---0---0---0---0---0---0---0---0---0---0---0---0----|  x2
G|--4-------4-------2-------2-------0-------0-------0-------2----------|
D|---------------------------------------------------------------------|

[Guitar 1]
D|---------------------------|
A|---------------------------|
F|------------------2--------|
C|------7-----7---0-------0--|
G|----5-----5---2-----0-4----|
D|--4-----5------------------|

************************************

| h  Hammer-on
| /  Slide up
| ~  Vibrato

************************************

            
            
Suggest correction
Creating personal tab
Creating personal tab
You can edit any tab online and save it as your Personal.

You can edit, replace or remove any tab part or add personal notes – all changes will be seen only by you.

Personal tabs can be accessed anytime from any device, even offline.
Learn more »
Give kudos to tab author, rate the tab!
1 2 3 4 5
comments
print report bad tab
2 comments total.
+1 reply
picalowdo 185 Mar 13, 2017 08:35 PM, edited on March 21 2017, 08:45 am

I hope you likey. The middle 8 doesn't sound entirely the same, but Its kind'a close.

+2 reply
Pooyfragrence 10 Mar 21, 2017 04:30 AM

Thanks man. I was looking for a tab like this for ages. Cause I can't tab for sheeet, and all the others where chords that didn't sound rite for this song. So thankyou

guest
You may want to rate the tab now too:
select rating
Wanna post a correction for this tab? Suggest correction