Oops, an error
Loading. Please wait.

Catalyst Of Terror Tab

version 1
version 1

Whole song

Interactive

531 views 1 this week
no commentswrite comment
1 2 3 4 5
please rate
add to favorites
launch autoscroll
font size
0
reset
how to read this tab
guitar tuner
Tab Pro tools
  • play this tab
  • loop segment
  • change instrument
  • show fretboard
  • metronome
×
Best way to learn
"Catalyst Of Terror"
Autoscroll
slow
fast
+/-
esc
set tempo
stop
Contributor
Tuning
D A D G B E
this is my first song that i tab so if theres any mistakes please tell me but im pretty 
its right it sounds good when i play it =]

this song is in drop d

(1st guitar)
|-----------------------------------------------------------------------|
|-----------------------------------------------------------------------|
|-----------------------------------------------------------------------| x9
|12-0-0-10-0-0-8-0-10-0-8-0-7-0-5/7--12-0-10-0-8-0-10-0-8-0-7-0-5-0-5/7-|
|-----------------------------------------------------------------------|
|-----------------------------------------------------------------------|

(2nd guitar comes in after 1st guitar plays top bar once and plays this)
|--------------|
|--------------|
|--------------| x4
|0~----3~--5~--|
|0~----3~--5~--|
|0~----3~--5~--|

(both guitars)
|------|
|------|
|------| x1
|0-0-0-|
|0-0-0-|
|0-0-0-|
 . . .
(both guitars)
|-----------------|
|-----------------|
|-----------------| x1
|-----------------|
|0-0-0------------|
|0-0-0-----0/12\0-|
 . . .
(1st guitars)
|----------------------------------------------------------|
|----------------------------------------------------------|
|----------------------------------------------------------| x1
|----------------------------------------------------0---0-|
|-------5---3-----6---3---5---3h5--------5---3-----1---3---|
|-0-0-0---0---0-0---0---0---0------0-0-0---0---0-0---------|
  . . .   .   . .   .   .   .      . . .   .   . .
while 1st guitar plays top part 2nd plays this
(2nd guitar)
|---------------------------------------------------------|
|---------------------------------------------------------|
|---------------------------------------------------------| x1
|---------------------------------------------------------|
|0-0-0----------------------------0-0-0-------------------|
|0-0-0----------------------------0-0-0-------------------|
 . . .                            . . .
(both guitars)
|----------------------------------------------------------|
|----------------------------------------------------------|
|----------------------------------------------------------| x4
|----------------------------------------------------0---0-|
|-------5---3-----6---3---5---3h5--------5---3-----1---3---|
|-0-0-0---0---0-0---0---0---0------0-0-0---0---0-0---------|
  . . .   .   . .   .   .   .      . . .   .   . .
(1st guitar)
|----------------------------------------------------|
|----------------------------------------------------|
|----------------------------------------------------| x1
|5------3-----8------3------5------7-----8-----10----|
|5-x6---3-x2--8-x6---3-x2---5-x6---7-x2--8-x4--10-x4-|
|5------3-----8------3------5------7-----8-----10----|

(2nd guitar)
|------------------------------------------------------|
|------------------------------------------------------|
|8------5-----10------5------8------9-----10-----12----| x1
|x-x6---x-x2--x--x6---x-x2---x-x6---x-x2--x--x4--x--x4-|
|5------3-----8-------3------5------7-----8------10----|
|------------------------------------------------------|

(both guitars)
|----------------------------------------------------------|
|----------------------------------------------------------|
|----------------------------------------------------------| x4
|----------------------------------------------------0---0-|
|-------5---3-----6---3---5---3h5--------5---3-----1---3---|
|-0-0-0---0---0-0---0---0---0------0-0-0---0---0-0---------|
  . . .   .   . .   .   .   .      . . .   .   . .
(1st guitar)
|-------------------------------------------------|
|-------------------------------------------------|
|-------------------------------------------------| x1
|5-----3-----8-----3------5-----7-----8-----10----|
|5-x6--3-x2--8-x6--3-x2---5-x6--7-x2--8-x4--10-x4-|
|5-----3-----8-----3------5-----7-----8-----10----|

(2nd guitar)
|---------------------------------------------------|
|---------------------------------------------------|
|8-----5-----10-----5------8-----9-----10-----12----| x1
|x-x6--x-x2--x--x6--x-x2---x-x6--x-x2--x--x4--x--x4-|
|5-----3-----8------3------5-----7-----8------10----|
|---------------------------------------------------|

(both guitars)
|---------------------------------------------------------|
|---------------------------------------------------------|
|---------------------------------------------------------| x2
|--------5p0-4------5h0-4------------5h0-4--------3-------|
|-------------------------------------------5-3-5---5-3-1-|
|-0-0-0---------0-0-------0-0---0--0----------------------|
  . . .         . .       . .   .  .
(2nd guitar)
|---------------------------------------------------------|
|---------------------------------------------------------|
|---------------------------------------------------------| x2
|--------5p0-4------5h0-4------------5h0-4--------3-------|
|-------------------------------------------5-3-5---5-3-1-|
|-0-0-0---------0-0-------0-0---0--0----------------------|
  . . .         . .       . .   .  .
(1st guitar)
|---------------------------------------------------------|
|---------------------------------------------------------|
|---------------------------------------------------------| x2
|---------------------------------------------------------|
|--------6h0-5------6h0-5------------6h0-5--------3-------|
|-0-0-0---------0-0-------0-0---0--0--------5-3-5---5-3-1-|
  . . .         . .       . .   .  .
(1st guitar. 1st time clean the other 2 times are distorction)
|-------------------------------------------------------------------|
|---------------------------------------------------(those are 10's)|
|-------------------------------------------------------------------| x3
|8--8-7--7-7777-8--8-3--3-3333--8--8-7--7-7777-8--8--10-10-10101010-|
|5--5-5--5-5555-8--8-3--3-3333--5--5-5--5-5555-8--8--10-10-10101010-|
|-------------------------------------------------------------------|

(2nd guitar comes in after 1st guitar plays top bar once and plays this)
|-------------------------------|
|-------------------------------|
|-------------------------------| x2
|8~-7~---8~-3~---8~-7~---8~-10~-|
|8~-7~---8~-3~---8~-7~---8~-10~-|
|8~-7~---8~-3~---8~-7~---8~-10~-|

(1st guitar only)
|--------------------------|
|--------------------------|
|--------------------------| x1
|0----0------0------0----0-|
|0----0------0------0----0-|
|0--0-0--0-0-0--0-0-0--0-0-|
    .    . .    . .    .
(both guitars)
|--------------------------|
|--------------------------|
|--------------------------| x3
|0----0------0------0----0-|
|0----0------0------0----0-|
|0--0-0--0-0-0--0-0-0--0-0-|
    .    . .    . .    .
(1st guitar)
|--------------------------|
|--------------------------|
|--------------------------| x8
|0----0------0------0----0-|
|0----0------0------0----0-|
|0--0-0--0-0-0--0-0-0--0-0-|
    .    . .    . .    .
(2nd guitar)
|----------------------------------------------------|
|----------------------------------------------------|
|----------------------------------------------------|
|7----7------7------7----7-8----8------5------5----5-|
|----------------------------------------------------|
|---0----0-0----0-0----0-----0-----0-0----0-0----0---|
    .    .  .   . .    .     .     . .    . .    .
|-----------------------------------------------------|
|-----------------------------------------------------|
|-----------------------------------------------------|
|7----7------7------7----7-8----8------10-----10---10-|
|-----------------------------------------------------|
|---0----0-0----0-0----0-----0-----0-0----0-0----0----|
    .    . .    . .    .     .     . .    . .    .
|-------------------------------------------------------|
|-------------------------------------------------------|
|-------------------------------------------------------|
|12---12-----12-----12---12-13---13------10-----10---10-|
|-------------------------------------------------------|
|---0----0-0----0-0----0-------0-----0-0----0-0----0----|
    .    . .    . .    .       .     . .    . .    .
|-------------------------------------------------------|
|-------------------------------------------------------|
|-------------------------------------------------------|
|12---12-----12-----12---12-13---13------15-----15---15-|
|-------------------------------------------------------|
|---0----0-0----0-0----0-------0-----0-0----0-0----0----|
    .    . .    . .    .       .     . .    . .    .
(both guitars)
|----------------------------------------------------------------------|
|------------------------------------------------------(those are 10's)|
|----------------------------------------------------------------------| x2
|8-8-8-7-7-7-7-7-8-8-8-3-3-3-3-3--8-8-8-7-7-7-7-7-8-8-8-10-10-10-10-10-|
|5-5-5-5-5-5-5-5-8-8-8-3-3-3-3-6--5-5-5-5-5-5-5-5-8-8-8-10-10-10-10-10-|
|----------------------------------------------------------------------|

(both guitars)
|----------------------------------------------------------|
|----------------------------------------------------------|
|----------------------------------------------------------| x3
|----------------------------------------------------0---0-|
|-------5---3-----6---3---5---3h5--------5---3-----1---3---|
|-0-0-0---0---0-0---0---0---0------0-0-0---0---0-0---------|
  . . .   .   . .   .   .   .      . . .   .   . .
(both guitars)
|----------------------------------------------------------|
|----------------------------------------------------------|
|--------------------------------------------------3---5---| x1
|--------------------------------------------------3---5---|
|-------5---3-----6---3---5---3h5--------5---3-----1---3---|
|-0-0-0---0---0-0---0---0---0------0-0-0---0---0-0---------|
  . . .   .   . .   .   .   .      . . .   .   . .
(both guitars)
|---------------|
|---------------|
|---------------|
|------------0~-|
|0--0--0-----0~-|
|0--0--0--00-0~-|
 .  .  .  ..
(both guitars)
|----------------------------------|
|----------------------------------|
|----------------------------------| x6
|----------------------------------|
|0-0-0-000-0-0-000-0-0-000-000-000-|
|0-0-0-000-0-0-000-0-0-000-000-000-|
 . . . ... . . ... . . ... ... ...
|-------------------------------------|
|-------------------------------------|
|-------------------------------------| x1
|-------------------------------------|
|0-0-0-000-0-0-000-0-0-000-000-000-0-0|
|0-0-0-000-0-0-000-0-0-000-000-000-0-0|
 . . . ... . . ... . . ... ... ... . .
and thats the whole song im sure its 99% correct =].please rate this :D
comments
We did not receive enough feedback on this tab! Please rate:
print report bad tab
1 2 3 4 5
I want to post or [tab]
guest
You may want to rate the tab now too:
select rating
Please do not post tabs as comments. Select "correction" instead!