Oops, an error
Loading. Please wait.

Maybe You Are Tab

version 2
version 2

Whole song

  • This is the way Asaf plays, with capo on 5th. It i... Show more
40 views 6 this week
no commentswrite comment
1 2 3 4 5
3 more votes to show rating
add to favorites
launch autoscroll
font size
0
reset
how to read this tab
guitar tuner
Autoscroll
slow
fast
+/-
esc
set tempo
stop
Help us to improve Ultimate-Guitar.com Take our survey!
×
Author
Difficulty
Capo
intermediate
5th fret
About this tab version
This is the way Asaf plays, with capo on 5th. It is the complete song with descriptive tabs and chords. Was this info helpful? Yes No
This tab might not be 100%, but it's as close as you would need to learn it. 
Slight picking variations can be self tought by listening and playing along with the song.

Scroll down for chords and text.


[Intro]

     C
e|-----------------------------------|
B|---------------0---------------0---|
G|-------0---------------0-----------|    x4
D|----------0h2-------------0h2------|
A|---3---------------3---------------|
E|-----------------------------------|




[Verse]


     C        
e|-----------------------------------|
B|---------------0---------------0---|
G|-------0---------------0-----------|
D|-----------3---------------3-------|
A|---3---------------3---------------|
E|-----------------------------------|

     Am
e|-----------------------------------|
B|---------------1---------------0---|
G|-------2---------------2-----------|
D|-----------------------------------|
A|---0-------0-------0-------0-------|
E|-----------------------------------|

     F
e|-----------------------------------|
B|---------------1---------------0---|
G|-------2---------------2-----------|
D|-----------3-------3-------3-------|
A|-----------------------------------|
E|---1-------------------------------|

     C
e|-----------------------------------|
B|---------------0---------------0---|
G|-------0---------------0-----------|
D|-----------3---------------3-------|
A|---3---------------3---------------|
E|-----------------------------------|




[Chorus]


     C
e|-----------------------------------|
B|---------------0---------------0---|
G|-------0---------------0-----------|
D|-----------3---------------3-------|
A|---3---------------3---------------|
E|-----------------------------------|

     F
e|-----------------------------------|
B|---------------1---------------0---|
G|-------2---------------2-----------|
D|-----------3-------3-------3-------|
A|-----------------------------------|
E|---1-------------------------------|


     C
e|-----------------------------------|
B|---------------1---------------1---|
G|-------0-------0-------0-------0---|
D|-------2---------------2-----------|
A|---3-------3-------3-------3-------|
E|-----------------------------------|


     F
e|-----------------------------------|
B|-------1---------------1--------0--|
G|-------1-------1-------1--------0--|
D|---------------2-------------------|
A|-----------------------------------|
E|---1-------1-------1-------1-------|


     C
e|-----------------------------------|
B|-------1---------------1-----------|
G|-------0-------0-------0-------0---|
D|---------------2---------------2---|
A|---3-------3-------3-------3-------|
E|-----------------------------------|


     F
e|-----------------------------------|
B|-------1---------------1--------0--|
G|-------1-------1-------1--------0--|
D|---------------2-------------------|
A|-----------------------------------|
E|---1-------1-------1-------1-------|


     C
e|-----------------------------------|
B|-------1---------------1-----------|
G|-------0-------0-------0-------0---|
D|---------------2---------------2---|
A|---3-------3-------3-------3-------|
E|-----------------------------------|


     Am
e|-----------------------------------|
B|-------1---------------1-----------|
G|-------2-------2-------2-------0---|
D|---------------2---------------0---|
A|---0-------0-------0-------0-------|
E|-----------------------------------|


     F
e|-----------------------------------|
B|-------1---------------1--------0--|
G|-------1-------1-------1--------0--|
D|---------------2-------------------|
A|-----------------------------------|
E|---1-------1-------1-------1-------|


     C
e|-----------------------------------|
B|-------1---------------1-----------|
G|-------0-------0-------0-------0---|
D|---------------2---------------2---|
A|---3-------3-------3-------3-------|
E|-----------------------------------|


     Am
e|-----------------------------------|
B|-------1---------------1-----------|
G|-------2-------2-------2-------0---|
D|---------------2---------------0---|
A|---0-------0-------0-------0-------|
E|-----------------------------------|


     F
e|-----------------------------------|
B|-------1---------------1--------0--|
G|-------1-------1-------1--------0--|
D|---------------2-------------------|
A|-----------------------------------|
E|---1-------1-------1-------1-------|



     C
e|-----------------------------------|
B|-------1---------------1-----------|
G|-------0-------0-------0-------0---|
D|------------------0h2----------2---|
A|---3-------3---------------3-------|
E|-----------------------------------|





[Intro]

C   C   C   C


[Verse 1]

C                              Am
    They met when he was in a hospital he whispered "I ain't 


F                        C
got no heart" into the room


C                                   Am
    She said "I'll make you smile again" and made an airplane out 


F                               C
of some pretty words put in a spoon


C                             Am
    He said "I'll never see again... My eyes are sorta twisted 


F                        C
inwards, deep into my throat"


C                                 Am
She said "don't worry babe, I'll open up your jam, I'll open 


F                            C                   Am       F         
up my pretty self" and she laid down on his rooo-oad



[Chorus]

C                          F              C
    She said "how do you know? Maybe you are"


                           F              C
    She said "how do you know? Maybe you are"


                           F
    She said "how do you know? 


           C           Am
Maybe you ah ah ah ah are"


           F           C
Maybe you ah ah ah ah are


           Am
Maybe you are


           F
Maybe you are


           C
Maybe you are


[Verse 2]

C                                 Am
    She peeled his skin away, so every day he'd cry and in those 


F                             C
tears he'd lie to find some peace


C                                        Am
    She'd break from all his words, but she was made of mercury, She'd 


F                              C
come together later piece by piece


C                               Am
    And it became a game they played, under the blankets in the 


F                                         C
bed, pretending she was small and he was big


C                                       Am
    And she became so small, he could lift her, body and heart and all.


  F                    C                Am       F               C
He held her up naked, she was just his fig.               Just his fig



[Chorus]

C                          F              C
    She said "how do you know? Maybe you are"


                           F              C
    She said "how do you know? Maybe you are"


                           F
    She said "how do you know? 


           C           Am
Maybe you ah ah ah ah are"


           F           C
Maybe you ah ah ah ah are


           Am
Maybe you are


           F
Maybe you are


           C
Maybe you are



[Outro]

C             Am
    Maybe you are


              F
    Maybe you are


              C
    Maybe you are







Tab by mumrikn

Suggest correction
Give kudos to tab author, rate the tab!
1 2 3 4 5
comments
print report bad tab
guest
You may want to rate the tab now too:
select rating
Wanna post a correction for this tab? Suggest correction