Oops, an error
Loading. Please wait.

Pin Drop Tab

2,237 views 1 this week
2 commentsread comments
1 2 3 4 5
please rate
add to favorites
launch autoscroll
font size
0
reset
how to read this tab
guitar tuner
Autoscroll
slow
fast
+/-
esc
set tempo
stop
Help us to improve Ultimate-Guitar.com Take our survey!
×
Author
Asche & Spencer - Pin Drop - Single
Band Site: http://www.ascheandspencer.com/

Tuning: Standard (E A D G B e)

This is from the 2011 Kia Sportage commercial I'm pretty sure. It's an awesome riff and not
very difficult. I've never seen another tab on this song so I gave it a try. This is my first
tab, but I believe it is pretty accurate.

Part I: (Main Riff)

Guitar I:

e|-------------xxx--------------x---xx---------------------------------|
B|-------------xxx--------------x---xx---------------------------------|
G|-------------xxx--------------x---xx---------------------------------|
D|---------6---xxx--------------x---xx---------------------------------|
A|-8-8-6-8---8-xxx----6-8-8-6-8-x---xx---------------------------------|
E|-------------xxx--8-----------x-4-xx-6-------------------------------|

e|-------------xxx---------------xx------------------------------------|
B|-------------xxx---------------xx--8b9b8-6---------------------------|
G|-------------xxx---------------xx--8b9b8-6---------------------------|
D|---------6---xxx---------------xx------------------------------------|
A|-8-8-6-8---8-xxx----6-8-8-6-8--xx------------------------------------|
E|-------------xxx--8------------xx------------------------------------|

Part II: (0:09)

Guitar I:

e|-------------xxx--------------x---xx---------------------------------|
B|-------------xxx--------------x---xx---------------------------------|
G|-------------xxx--------------x---xx---------------------------------|
D|---------6---xxx--------------x---xx---------------------------------|
A|-8-8-6-8---8-xxx----6-8-8-6-8-x---xx---------------------------------|
E|-------------xxx--8-----------x-4-xx-6-------------------------------|

e|-------------xxx---------------xx------------------------------------|
B|-------------xxx---------------xx--8b9b8-6---------------------------|
G|-------------xxx---------------xx--8b9b8-6---------------------------|
D|---------6---xxx---------------xx------------------------------------|
A|-8-8-6-8---8-xxx----6-8-8-6-8--xx------------------------------------|
E|-------------xxx--8------------xx------------------------------------|

Guitar II:

e|---------------------------------------------------------------------|
B|---------------------------------------------------------------------|
G|---------------------------------------------------------------------|
D|---------6~~---------------------------------------------------------|
A|--8~~-----------6~~----8~~-------------------------------------------|
E|---------------------------------------------------------------------|

Part III: (0:20)

Guitar I:

e|-------------xxx--------------x---xx---------------------------------|
B|-------------xxx--------------x---xx---------------------------------|
G|-------------xxx--------------x---xx---------------------------------|
D|---------6---xxx--------------x---xx---------------------------------|
A|-8-8-6-8---8-xxx----6-8-8-6-8-x-6-xx-8-------------------------------|
E|-------------xxx--8-----------x-4-xx-6-------------------------------|

e|-------------xxx---------------xx------------------------------------|
B|-------------xxx---------------xx--8b9b8-6---------------------------|
G|-------------xxx---------------xx--8b9b8-6---------------------------|
D|---------6---xxx---------------xx------------------------------------|
A|-8-8-6-8---8-xxx----6-8-8-6-8--xx------------------------------------|
E|-------------xxx--8------------xx------------------------------------|

e|-------------xxx--------------x---xx---------------------------------|
B|-------------xxx--------------x---xx---------------------------------|
G|-------------xxx--------------x---xx---------------------------------|
D|---------6---xxx--------------x---xx---------------------------------|
A|-8-8-6-8---8-xxx----6-8-8-6-8-x-6-xx-8-------------------------------|
E|-------------xxx--8-----------x-4-xx-6-------------------------------|

e|-------------xxx---------------xxxxx---------------------------------|
B|-------------xxx---------------xxxxx---------------------------------|
G|-------------xxx---------------xxxxx---------------------------------|
D|---------6---xxx---------------xxxxx--10-----------------------------|
A|-8-8-6-8---8-xxx----6-8-8-6-8--xxxxx--10-----------------------------|
E|-------------xxx--8------------xxxxx--8------------------------------|

Part IV: (0:42)

e|---------------------------------------------------------------------|
B|---------------------------------------------------------------------|
G|--6-6-6-6---------8-8-8-8--------------------------------------------|
D|--6-6-6-6-6-6-6-6-8-8-8-8-8-8-8-10-----------------------------------|
A|--4-4-4-4-6-6-6-6-6-6-6-6-8-8-8-10-----------------------------------|
E|----------4-4-4-4---------6-6-6-8------------------------------------|

e|---------------------------------------------------------------------|
B|---------------------------------------------------------------------|
G|--6-6-6-6---------8-8-8-8-8-8-9-9------------------------------------|
D|--6-6-6-6-6-6-6-6-8-8-8-8-8-8-9-9------------------------------------|
A|--4-4-4-4-6-6-6-6-6-6-6-6-6-6-7-7------------------------------------|
E|----------4-4-4-4----------------------------------------------------|

e|-------------xxx--------------x--xx----------------------------------|
B|-------------xxx--------------x--xx----------------------------------|
G|-------------xxx--------------x--xx--8-------------------------------|
D|---------6---xxx--------------x--xx--8-------------------------------|
A|-8-8-6-8---8-xxx----6-8-8-6-8-x--xx--6-------------------------------|
E|-------------xxx--8-----------x--xx----------------------------------|

Part V: (0:58)

e|-------------xxx--------------x---xx---------------------------------|
B|-------------xxx--------------x---xx---------------------------------|
G|-------------xxx--------------x---xx---------------------------------|
D|---------6---xxx--------------x---xx---------------------------------|
A|-8-8-6-8---8-xxx----6-8-8-6-8-x---xx---------------------------------|
E|-------------xxx--8-----------x-4-xx-6-------------------------------|

e|-------------xxx---------------xx------------------------------------|
B|-------------xxx---------------xx--8b9b8-6---------------------------|
G|-------------xxx---------------xx--8b9b8-6---------------------------|
D|---------6---xxx---------------xx------------------------------------|
A|-8-8-6-8---8-xxx----6-8-8-6-8--xx------------------------------------|
E|-------------xxx--8------------xx------------------------------------|

e|-------------xxx----------------xx-----------------------------------|
B|-------------xxx----------------xx-----------------------------------|
G|-------------xxx----------------xx-----------------------------------|
D|---------6---xxx--------------6-xx--10-------------------------------|
A|-8-8-6-8---8-xxx----6-8-8-6-8---xx--10-------------------------------|
E|-------------xxx--8-------------xx--8--------------------------------|

e|---------------------------------------------------------------------|
B|---------------------------------------------------------------------|
G|--6-6-6-6---------8-8-8-8--------------------------------------------|
D|--6-6-6-6-6-6-6-6-8-8-8-8-8-8-8-10-----------------------------------|
A|--4-4-4-4-6-6-6-6-6-6-6-6-8-8-8-10-----------------------------------|
E|----------4-4-4-4---------6-6-6-8------------------------------------|

e|---------------------------------------------------------------------|
B|---------------------------------------------------------------------|
G|--6-6-6-6---------8-8-8-8--------------------------------------------|
D|--6-6-6-6-6-6-6-6-8-8-8-8-8-8-8-10-----------------------------------|
A|--4-4-4-4-6-6-6-6-6-6-6-6-8-8-8-10-----------------------------------|
E|----------4-4-4-4---------6-6-6-8------------------------------------|

e|---------------------------------------------------------------------|
B|---------------------------------------------------------------------|
G|--6-6-6-6---------8-8-8-8--------------------------------------------|
D|--6-6-6-6-6-6-6-6-8-8-8-8-8-8-8-10-----------------------------------|
A|--4-4-4-4-6-6-6-6-6-6-6-6-8-8-8-10-----------------------------------|
E|----------4-4-4-4---------6-6-6-8------------------------------------|

e|---------------------------------------------------------------------|
B|---------------------------------------------------------------------|
G|--6-6-6-6---------8-8-8-8-8-8-9-9------------------------------------|
D|--6-6-6-6-6-6-6-6-8-8-8-8-8-8-9-9------------------------------------|
A|--4-4-4-4-6-6-6-6-6-6-6-6-6-6-7-7------------------------------------|
E|----------4-4-4-4----------------------------------------------------|

e|-------------x-------------------------------------------------------|
B|-------------x-------------------------------------------------------|
G|-------------x------------10~----------------------------------------|
D|---------6---x------------10~----------------------------------------|
A|-8-8-6-8---8-x-----6~-----8~-----------------------------------------|
E|-------------x-8-8---------------------------------------------------|

Tabbed by: Biscuit
Suggest correction
Give kudos to tab author, rate the tab!
1 2 3 4 5
comments
print report bad tab
2 comments total.
0 reply
Trigger1019 51 wrote on September 30 2010, 04:44 pm

I meant to say:
"NOT very difficult" and "my FIRST tab"

-1 reply
fav13andac1)c 101 wrote on October 16 2010, 11:30 pm

I'm not sure but I think it's a half step down

guest
You may want to rate the tab now too:
select rating
Please do not post tabs as comments. Select "correction" instead!