Oops, an error
Loading. Please wait.

Crosses bass

by ASG
818 views 1 this week
1 commentread comment
1 2 3 4 5
3 more votes to show rating
add to favorites
×
Save as Personal and add changes to this tab that will be seen only by you. Learn more ›
×
You can save this tab as Personal to edit and correct it or add notes. All changes will be seen only by you. Learn more »
launch autoscroll
font size
0
reset
guitar tuner
edit
Autoscroll
slow
fast
+/-
esc
set tempo
stop
Author
Difficulty
I tabbed this up a while ago for a friend so we could learn it. but never got round to 
so i hope it will help some people after the bass fotr this song
because the versions i have seen are wrong!

intro after first 4 guitar verses

G-----------------------------------------------------------------|
D-----------------------------------------------------------------| x 4
A-----------------------------------------------------------------|
E-1-1-1-1-1-1-1-1-1-1-1-1-1-1-1-4-4-4-4-4-4-4-4-3-3-3-3-3-3-xxx-0-|


G-----------------------------------------------------------------|
D-------------------------------------------------------6---3-4---|
A---------------------------------------------------------4-------| x 2
E 0-0-0-0-0-0-0-0-0-0-0-0-0-0-5-5-5-5-5-5-5-5-5-5-5-5-5-----------|

G ----------------------------------------------------------------|
D ----------------------------------------------------------------|
A -----------------------------5---7---3---1----------------------| x 4
E -1-1-1-1-1-1-1-1-1-1-1-1---0---0---0---0------------------------|

G -----------------------------------------------------------------|
D -------------------------------------------------------6---3-4---|
A ---------------------------------------------------------4-------| x 2
E 0-0-0-0-0-0-0-0-0-0-0-0-0-0-5-5-5-5-5-5-5-5-5-5-5-5-5------------|

G -----------------------------------------------------------------|
D -----------------------------------------------------------------|
A -----------------------------5---7---3---1-----------------------| x 4
E -1-1-1-1-1-1-1-1-1-1-1-1---0---0---0---0-------------------------|

G -----------------------------------------------------------------|
D -----------------------------------------------------------------|
A -----------------------------------------------------------------|
E 1-1-1-1-1-1-1-1-1-1-1-1-5-xx-5-xx-5-5-5-5------------------------|

Pause for guitar riff

G -----------------------------------------------------------------|
D -----------------------------------------------------------------|
A -----------------------------------------------------------------|
E 1-1-1-1-1-1-1-1-1-1-1-1-5-xx-5-xx-5-5-5-5------------------------|

Pause for guitar riff

G ----------------------------------------------------------------------|
D ----------------------------------------------------------------------|
A ----------------------------------------------------------------------|
E 1-1-1-1-1-1-1-1-1-1-1-5-xx-5-xx-5-5-5-5-5/7-7-7-7-7/5-5-5-5-5-5-5-5-5-|

G -----------------------------------------------------------------|
D -----------------------------------------------------------------|
A -----------------------------------------------------------------| x 4
E -5-5-5-5-5-5-5-5-5-5-5-5-5-5/9-5---------------------------------|

G -----------------------------------------------------------------|
D -----------------------------------------------------------------|
A -----------------------------------------------------------------| x 4
E -5-1-1-1-1-1-1-1-1-1-1-1-1-1-1-----------------------------------|

G -----------------------------------------------------------------|
D -----------------------------------------------------------------|
A -----------------------------------------------------------------|
E -1-1-1-1-1-1-----------------------------------------------------|

Pause for Guitar Riff

G -----------------------------------------------------------------|
D -----------------------------------------------------------------|
A -----------------------------------------------------------------| x 5
E -5-1-1-1-1-1-1-1-1-1-1-1-1-1-1-----------------------------------|

G -----------------------------------------------------------------|
D -----------------------------------------------------------------|
A -----------------------------------------------------------------|
E 1-1-1-1-1-1-1-1-1-1-1-1-5-xx-5-xx-5-5-5-5------------------------|

Pause for Guitar Riff

G -----------------------------------------------------------------|
D -----------------------------------------------------------------|
A -----------------------------------------------------------------|
E 1-1-1-1-1-1-1-1-1-1-1-1-5-xx-5-xx-5-5-5-5------------------------|

Pause for Guitar Riff

G -----------------------------------------------------------------------|
D -----------------------------------------------------------------------|
A -----------------------------------------------------------------------|
E -1-1-1-1-1-1-1-1-1-1-1-5-xx-5-xx-5-5-5-5-5/7-7-7-7-7/5-5-5-5-5-5-5-5-5-|


G -----------------------------------------------------------------|
D -------------------------------------------------------6---3-4---|
A ---------------------------------------------------------4-------| x 2
E 0-0-0-0-0-0-0-0-0-0-0-0-0-0-5-5-5-5-5-5-5-5-5-5-5-5-5------------|

not sure on the solo bit at the moment.
Suggest correction
Creating personal tab
Creating personal tab
You can edit any tab online and save it as your Personal.

You can edit, replace or remove any tab part or add personal notes – all changes will be seen only by you.

Personal tabs can be accessed anytime from any device, even offline.
Learn more »
Give kudos to tab author, rate the tab!
1 2 3 4 5
comments
print report bad tab
1 comment total.
0 reply
Gofretless 51 Jul 03, 2008 11:19 PM

Did you write this Tab for standard or Drop D?

guest
You may want to rate the tab now too:
select rating
Wanna post a correction for this tab? Suggest correction