Oops, an error
Loading. Please wait.

Low End Insight bass

version 1
version 1

Whole song

Interactive

by ASG
622 views 3 this week
no commentswrite comment
1 2 3 4 5
2 more votes to show rating
add to favorites
×
Save as Personal and add changes to this tab that will be seen only by you. Learn more ›
×
You can save this tab as Personal to edit and correct it or add notes. All changes will be seen only by you. Learn more »
launch autoscroll
font size
0
reset
guitar tuner
edit
Autoscroll
slow
fast
+/-
esc
set tempo
stop
                                Low End Insight


                                                                            ASG
Bass

Okay, so this is the second song I ever tabbed out in full so there might
be some mistakes, but for the most part I feel it's very accurate.
Although, I did mess with the bass track while tabbing it a bit since I
was mainly tabbing it for guitar. If you want, you can just follow
the guitar since there are some extra notes in this tab.
( I tabbed it out and put it all into GuitarPro. This is just the exported ACSII file 
GuitarPro. )
Anyway, please message me with any comments, questions of corrections:
all feedback is welcomed.


Duration Legend
---------------
W - whole
H - half
Q - quarter
E - 8th
S - 16th
T - 32nd
X - 64th
. - note dotted
|-n-|  - n-tuplets


Tablature Legend
----------------
L - tied note
x - dead note
g - grace note
(n) - ghost note
> - accentuded note
NH - natural harmonic
AH - artificial harmonic
TH - tapped harmonic
SH - semi harmonic
PH - pitch harmonic
h - hammer on
p - pull off
b - bend
br - bendRelease
pb - preBend
pbr - preBendRelease
brb - bendReleaseBend
\n/ - tremolo bar dip
\n - tremolo bar dive
-/n - tremolo bar Release up
/n\ - tremolo bar inverted dip
/n - tremolo bar return
-\n - tremolo bar Release down
S - shift slide
s - legato slide
/ -  slide into from below or out of upwards
\ -  slide into from above or out of downwards
~ - vibrato
W - wide vibrato
tr - trill
TP - tremolo picking
T - tapping
S - slap
P - pop
< - fade in
^ - brush up
v - brush down


             E  E  E  E  E  E  Q    Q    E  E
F||-------|------------------------------------|
C||-------|------------------------------------|
G||-------|--3--5--3---------------------------|
C||-------|-----------3--5--3--0----0----3--5--|


  Q    Q    E  E  E  E  E  E  E  E     E  E  E  E  E  E  Q    Q    E  E
------------------------------------|------------------------------------|
--3---------------3--5--3-----------|------------------------------------|
-------5----3--5-----------3--5--3--|--3--5--3---------------------------|
------------------------------------|-----------3--5--3--0----0----3--5--|


  Q    Q    E  E  E  E  E  E  E  E     E  E  E  E  E  E  Q    Q    E  E
------------------------------------|------------------------------------|
--3---------------3--5--3-----------|------------------------------------|
-------5----3--5-----------3--5--3--|------------------------------------|
------------------------------------|--5--6--5--3--5--3--0----0----3--5--|


  Q    Q    E  E  E  E  E  E  E  E     E  E  E  E  E  E  Q    Q    E  E
------------------------------------|------------------------------------|
--3---------------3--5--3-----------|------------------------------------|
-------5----3--5-----------3--5--3--|--3--5--3---------------------------|
------------------------------------|-----------3--5--3--0----0----3--5--|


  Q    Q    E  E  E  E  E  E  E  E     Q.     E   E   E  Q    Q    Q
------------------------------------|-----------------------------------|
--3---------------------------------|--------------------3----3----3----|
-------5----3--5--------------------|-----------------------------------|
------------------5--6--5--3--5--3--|--0------0h--5p--3-----------------|


  E  Q    E  E  E  Q    E  Q.        Q.     E   E   E  Q    Q    Q
----------------------------------|-----------------------------------|
--3--3----------------------------|--------------------3----3----3----|
----------3--5--3--3----5--3------|-----------------------------------|
----------------------------------|--0------0h--5p--3-----------------|


  E  Q    E  E  E  Q    E  Q.        Q.     E   E   E  Q    Q    Q
----------------------------------|-----------------------------------|
--3--3----------------------------|--------------------3----3----3----|
----------3--5--3--3----5--3------|-----------------------------------|
----------------------------------|--0------0h--5p--3-----------------|


  E  Q    E  E  E  Q    E  Q.        Q.     E   E   E  Q    Q    Q
----------------------------------|-----------------------------------|
--3--3----------------------------|--------------------3----3----3----|
----------3--5--3--3----5--3------|-----------------------------------|
----------------------------------|--0------0h--5p--3-----------------|


  E  Q    E  E  E  Q    E  Q.        E  E  E  E  E  E  Q    H
----------------------------------|----------------------------------|
--3--3----------------------------|----------------------------------|
----------3--5--3--3----5--3------|--5--3--5-------------------------|
----------------------------------|-----------3--5--3--3----0--------|


  H        E  E  Q    H           E  E  E  E  E  E  Q    H
-------------------------------|----------------------------------|
-------------------------------|----------------------------------|
-----------------3----3--------|--5--3--5-------------------------|
--L--------L--L----------------|-----------3--5--3--3----0--------|


  Q    Q    H        H           E  E  E  E  E  E  Q    H
------------------------------|----------------------------------|
------------------------------|----------------------------------|
-------8----8--------3--------|--5--3--5-------------------------|
--L---------------------------|-----------3--5--3--3----0--------|


  H        E  E  Q    H           E  E  E  E  E  E  Q    H
-------------------------------|----------------------------------|
-------------------------------|----------------------------------|
-----------------3----3--------|--5--3--5-------------------------|
--L--------L--L----------------|-----------3--5--3--3----0--------|


  Q    Q    H        H           Q    Q    E   E  Q    Q    E  E
------------------------------|-----------------------------------|
------------------------------|-----------------------------------|
-------8----8--------3--------|-----------------------------------|
--L---------------------------|--8----8----8--10--5----5----5--7--|


  Q    Q    Q    Q    E  E  E  E     Q    Q    E   E  Q    Q    E  E
----------------------------------|-----------------------------------|
----------------------------------|-----------------------------------|
----------------------------------|-----------------------------------|
--0----0----0----0----0--0--0--0--|--8----8----8--10--5----5----5--7--|


  Q    Q    Q    H.              Q    Q    E   E  Q    Q    E  E
------------------------------|-----------------------------------|
------------------------------|-----------------------------------|
------------5----5------------|-----------------------------------|
--7----7----------------------|--8----8----8--10--5----5----5--7--|


  Q    Q    Q    Q    E  E  E  E     Q    Q    E   E  Q    Q    E  E
----------------------------------|-----------------------------------|
----------------------------------|-----------------------------------|
----------------------------------|-----------------------------------|
--0----0----0----0----0--0--0--0--|--8----8----8--10--5----5----5--7--|


  Q    Q    Q    H.              E  E  E  E  E  E  Q    H
------------------------------|----------------------------------|
------------------------------|----------------------------------|
------------5----5------------|--3--5--3-------------------------|
--7----7----------------------|-----------3--5--3--0----0--------|


  Q    E  Q    E  Q    E  Q    E     E  E  E  E  E  E  Q    H
----------------------------------|----------------------------------|
----------------------------------|----------------------------------|
--8----8--8----8--8----8--8----8--|--3--5--3-------------------------|
----------------------------------|-----------3--5--3--0----0--------|


  Q    E  Q    E  Q     E   Q     E     E  E  E  E  E  E  Q    H
-------------------------------------|----------------------------------|
-------------------------------------|----------------------------------|
--8----8--8----8--8----10--10----10--|--3--5--3-------------------------|
-------------------------------------|-----------3--5--3--0----0--------|


  Q    E  Q    E  Q    E  Q    E     E  E  E  E  E  E  Q    H
----------------------------------|----------------------------------|
----------------------------------|----------------------------------|
--8----8--8----8--8----8--8----8--|--3--5--3-------------------------|
----------------------------------|-----------3--5--3--0----0--------|


  Q    E  Q    E  Q    E  Q    E     E  E  E  E  E  E  Q    H
----------------------------------|----------------------------------|
----------------------------------|--5--6--5--3--5--3--3-------------|
--8----8--8----8--6----6--6-------|-------------------------5--------|
-------------------------------0--|----------------------------------|


  Q    H        Q    H           E  E  E  E  E  E  Q    Q    Q
------------------------------|-----------------------------------|
------------------------------|--5--6--5--3--5--3--3--------------|
------------------------------|-------------------------5----5----|
--6----5--------3----0--------|-----------------------------------|


  Q    Q    E   E  Q    H           E  E  E  E  E  E  Q    H
---------------------------------|----------------------------------|
---------------------------------|--5--6--5--3--5--3--3-------------|
---------------------------------|-------------------------5--------|
--6----5----3h--5--3----0--------|----------------------------------|


  Q    H        Q    H           E  E  E  E  E  E  Q    Q    Q
------------------------------|-----------------------------------|
------------------------------|--5--6--5--3--5--3--3--------------|
------------------------------|-------------------------5----5----|
--6----5--------3----0--------|-----------------------------------|


  Q    Q    E   E  Q    H           Q.     E   E   E  Q    Q    Q
---------------------------------|-----------------------------------|
---------------------------------|--------------------3----3----3----|
---------------------------------|-----------------------------------|
--6----5----3h--5--3----0--------|--0------0h--5p--3-----------------|


  E  Q    E  E  E  Q    E  Q.        Q.     E   E   E  Q    Q    Q
----------------------------------|-----------------------------------|
--3--3----------------------------|--------------------3----3----3----|
----------3--5--3--3----5--3------|-----------------------------------|
----------------------------------|--0------0h--5p--3-----------------|


  E  Q    E  E  E  Q    E  Q.        Q.     E   E   E  Q    Q    Q
----------------------------------|-----------------------------------|
--3--3----------------------------|--------------------3----3----3----|
----------3--5--3--3----5--3------|-----------------------------------|
----------------------------------|--0------0h--5p--3-----------------|


  E  Q    E  E  E  Q    E  Q.        Q.     E   E   E  Q    Q    Q
----------------------------------|-----------------------------------|
--3--3----------------------------|--------------------3----3----3----|
----------3--5--3--3----5--3------|-----------------------------------|
----------------------------------|--0------0h--5p--3-----------------|


  E  Q    E  E  E  Q    E  Q.        E  E  E  E  E  E  Q    H
----------------------------------|----------------------------------|
--3--3----------------------------|----------------------------------|
----------3--5--3--3----5--3------|--5--3--5-------------------------|
----------------------------------|-----------3--5--3--3----0--------|


  H        E  E  Q    H           E  E  E  E  E  E  Q    H
-------------------------------|----------------------------------|
-------------------------------|----------------------------------|
-----------------3----3--------|--5--3--5-------------------------|
--L--------L--L----------------|-----------3--5--3--3----0--------|


  Q    Q    H        H           E  E  E  E  E  E  Q    H
------------------------------|----------------------------------|
------------------------------|----------------------------------|
-------8----8--------3--------|--5--3--5-------------------------|
--L---------------------------|-----------3--5--3--3----0--------|


  H        E  E  Q    H           E  E  E  E  E  E  Q    H
-------------------------------|----------------------------------|
-------------------------------|----------------------------------|
-----------------3----3--------|--5--3--5-------------------------|
--L--------L--L----------------|-----------3--5--3--3----0--------|


  Q    Q    H        H           Q    Q    E   E  Q    Q    E  E
------------------------------|-----------------------------------|
------------------------------|-----------------------------------|
-------8----8--------3--------|-----------------------------------|
--L---------------------------|--8----8----8--10--5----5----5--7--|


                            |--3--|
  Q    Q    E  E  Q    Q    E  E  E     Q    Q    E   E  Q    Q    E  E
-------------------------------------|-----------------------------------|
-------------------------------------|-----------------------------------|
-------------------------------------|-----------------------------------|
--0----0----0--0--0----0----0--0--0--|--8----8----8--10--5----5----5--7--|


  Q    Q    Q    H.              Q    Q    E   E  Q    Q    E  E
------------------------------|-----------------------------------|
------------------------------|-----------------------------------|
------------5----5------------|-----------------------------------|
--7----7----------------------|--8----8----8--10--5----5----5--7--|


                            |--3--|
  Q    Q    E  E  Q    Q    E  E  E     Q    Q    E   E  Q    Q    E  E
-------------------------------------|-----------------------------------|
-------------------------------------|-----------------------------------|
-------------------------------------|-----------------------------------|
--0----0----0--0--0----0----0--0--0--|--8----8----8--10--5----5----5--7--|


  Q    Q    Q    H.              E  E  E  E  E  E  Q    H
------------------------------|----------------------------------|
------------------------------|----------------------------------|
------------5----5------------|--3--5--3-------------------------|
--7----7----------------------|-----------3--5--3--0----0--------|


  Q    E  Q    E  Q    E  Q    E     E  E  E  E  E  E  Q    H
----------------------------------|----------------------------------|
----------------------------------|----------------------------------|
--8----8--8----8--8----8--8----8--|--3--5--3-------------------------|
----------------------------------|-----------3--5--3--0----0--------|


  Q    E  Q    E  Q     E   Q     E     E  E  E  E  E  E  Q    H
-------------------------------------|----------------------------------|
-------------------------------------|----------------------------------|
--8----8--8----8--8----10--10----10--|--3--5--3-------------------------|
-------------------------------------|-----------3--5--3--0----0--------|


  Q    E  Q    E  Q    E  Q    E     E  E  E  E  E  E  Q    H
----------------------------------|----------------------------------|
----------------------------------|----------------------------------|
--8----8--8----8--8----8--8----8--|--3--5--3-------------------------|
----------------------------------|-----------3--5--3--0----0--------|


   Q     E   Q     E  Q    E  Q    E     W.                  W.
--------------------------------------|-------------------|-------------------|
--------------------------------------|-------------------|-------------------|
--10----10--10----10--8----8--8-------|-------------------|-------------------|
-----------------------------------0--|--2----------------|--L----------------|


  W.                  W.                  W.                  W.
-------------------|-------------------|-------------------|-------------------|
-------------------|-------------------|-------------------|-------------------|
--7----------------|--L----------------|-------------------|-------------------|
-------------------|-------------------|--8----------------|--L----------------|


  W.                  H        Q    Q    Q    Q
-------------------|-------------------------------|
-------------------|-------------------------------|
--7----------------|--L--------L----7--------------|
-------------------|-------------------------------|


  E  E  E  Q    H        E  E  E     Q    Q    Q    E  E  E  Q.
----------------------------------|---------------------------------|
----------------------------------|---------------------------------|
----------------------------------|---------------------------------|
--2--3--2--2----2--------2--3--2--|--2----2----2----2--3--2--0------|


  E  E  E  Q    H        E  E  E     Q    Q    Q    E  E  E  Q.
----------------------------------|---------------------------------|
----------------------------------|---------------------------------|
----------------------------------|---------------------------------|
--2--3--2--2----2--------2--3--2--|--2----2----2----2--3--2--0------|


  E  E  E  Q    H        E  E  E     Q    Q    Q    E  E  E  Q.
----------------------------------|---------------------------------|
----------------------------------|---------------------------------|
----------------------------------|---------------------------------|
--2--3--2--2----2--------2--3--2--|--2----2----2----2--3--2--0------|


  E  E  E  Q    H        E  E  E     Q    Q    Q    E  E  E  Q.
----------------------------------|---------------------------------|
----------------------------------|---------------------------------|
----------------------------------|---------------------------------|
--2--3--2--2----2--------2--3--2--|--2----2----2----2--3--2--0------|


  E  E  E  Q    H        E  E  E     Q    Q    Q    E  E  E  Q.
----------------------------------|---------------------------------|
----------------------------------|---------------------------------|
----------------------------------|---------------------------------|
--2--3--2--2----2--------2--3--2--|--2----2----2----2--3--2--0------|


  E  E  E  Q    H        E  E  E     Q    Q    Q    E  E  E  Q.
----------------------------------|---------------------------------|
----------------------------------|---------------------------------|
----------------------------------|---------------------------------|
--2--3--2--2----2--------2--3--2--|--2----2----2----2--3--2--0------|


  E  E  E  Q    H        E  E  E     Q    Q    Q    E  E  E  Q.
----------------------------------|---------------------------------|
----------------------------------|---------------------------------|
----------------------------------|---------------------------------|
--2--3--2--2----2--------2--3--2--|--2----2----2----2--3--2--0------|


  E  E  E  Q    H        E  E  E     Q    Q    Q    E  E  E  Q.
----------------------------------|---------------------------------|
----------------------------------|---------------------------------|
----------------------------------|---------------------------------|
--2--3--2--2----2--------2--3--2--|--2----2----2----2--3--2--0------|


  E  E  E  Q    H        E  E  E     Q    Q    Q    E  E  E  Q.
----------------------------------|---------------------------------|
----------------------------------|---------------------------------|
----------------------------------|---------------------------------|
--2--3--2--2----2--------2--3--2--|--2----2----2----2--3--2--0------|


  E  E  E  Q    H        E  E  E     Q    Q    Q    E  E  E  Q.
----------------------------------|---------------------------------|
----------------------------------|---------------------------------|
----------------------------------|---------------------------------|
--2--3--2--2----2--------2--3--2--|--2----2----2----2--3--2--0------|


  E  E  E  Q    H        E  E  E     Q    Q    Q    E  E  E  Q.
----------------------------------|---------------------------------|
----------------------------------|---------------------------------|
----------------------------------|---------------------------------|
--2--3--2--2----2--------2--3--2--|--2----2----2----2--3--2--0------|


  E  E  E  Q    H        E  E  E     Q    Q    Q    E  E  E  Q.
----------------------------------|---------------------------------|
----------------------------------|---------------------------------|
----------------------------------|---------------------------------|
--2--3--2--2----2--------2--3--2--|--2----2----2----2--3--2--0------|


  W.                  W.                   W.
-------------------|-------------------|--------------------|
-------------------|-------------------|--------------------|
-------------------|-------------------|--------------------|
--7----------------|--L----------------|--10----------------|


  W.                  W.                  W.                  W.
-------------------|-------------------|-------------------|-------------------|
-------------------|-------------------|-------------------|-------------------|
-------------------|-------------------|-------------------|-------------------|
--L----------------|--0----------------|--L----------------|--L----------------|


  W.                  E  E  E  E  E  E  Q    Q    E  E
-------------------|------------------------------------|
-------------------|------------------------------------|
-------------------|--3--5--3---------------------------|
--L----------------|-----------3--5--3--0----0----3--5--|


  Q    Q    E  E  E  E  E  E  E  E     E  E  E  E  E  E  Q    Q    E  E
------------------------------------|------------------------------------|
--3---------------3--5--3-----------|------------------------------------|
-------5----3--5-----------3--5--3--|--3--5--3---------------------------|
------------------------------------|-----------3--5--3--0----0----3--5--|


  Q    Q    E  E  E  E  E  E  E  E     E  E  E  E  E  E  Q    Q    E  E
------------------------------------|------------------------------------|
--3---------------3--5--3-----------|------------------------------------|
-------5----3--5-----------3--5--3--|------------------------------------|
------------------------------------|--5--6--5--3--5--3--0----0----3--5--|


  Q    Q    E  E  E  E  E  E  E  E     E  E  E  E  E  E  Q    Q    E  E
------------------------------------|------------------------------------|
--3---------------3--5--3-----------|------------------------------------|
-------5----3--5-----------3--5--3--|--3--5--3---------------------------|
------------------------------------|-----------3--5--3--0----0----3--5--|


  Q.     E  E  E  Q.      Q.        E  E  E  E  E  E  Q    Q    E  E
---------------------------------|------------------------------------|
--3------------------------------|------------------------------------|
---------5--3--0-----------------|--3--5--3---------------------------|
------------------8------10------|-----------3--5--3--0----0----3--5--|


  Q    Q    E  E  E  E  E  E  E  E     E  E  E  E  E  E  Q    Q    E  E
------------------------------------|------------------------------------|
--3---------------3--5--3-----------|------------------------------------|
-------5----3--5-----------3--5--3--|--3--5--3---------------------------|
------------------------------------|-----------3--5--3--0----0----3--5--|


  Q.     E  E  E  Q.      Q.        E  E  E  E  E  E  Q    Q    E  E
---------------------------------|------------------------------------|
--3------------------------------|------------------------------------|
---------5--3--0-----------------|--3--5--3---------------------------|
------------------8------10------|-----------3--5--3--0----0----3--5--|


  Q    Q    E  E  E  E  E  E  E  E     E  E  E  E  E  E  Q    Q    E  E
------------------------------------|------------------------------------|
--3---------------3--5--3-----------|------------------------------------|
-------5----3--5-----------3--5--3--|--3--5--3---------------------------|
------------------------------------|-----------3--5--3--0----0----3--5--|


  Q.     E  E  E  Q.      Q.        Q    Q    E   E  Q    Q    E  E
---------------------------------|-----------------------------------|
--3------------------------------|-----------------------------------|
---------5--3--0-----------------|-----------------------------------|
------------------8------10------|--8----8----8--10--5----5----5--7--|


                            |--3--|
  Q    Q    E  E  Q    Q    E  E  E     Q    Q    E   E  Q    Q    E  E
-------------------------------------|-----------------------------------|
-------------------------------------|-----------------------------------|
-------------------------------------|-----------------------------------|
--0----0----0--0--0----0----0--0--0--|--8----8----8--10--5----5----5--7--|


  Q    Q    Q    H.              Q    Q    E   E  Q    Q    E  E
------------------------------|-----------------------------------|
------------------------------|-----------------------------------|
------------5----5------------|-----------------------------------|
--7----7----------------------|--8----8----8--10--5----5----5--7--|


                            |--3--|
  Q    Q    E  E  Q    Q    E  E  E     Q    Q    E   E  Q    Q    E  E
-------------------------------------|-----------------------------------|
-------------------------------------|-----------------------------------|
-------------------------------------|-----------------------------------|
--0----0----0--0--0----0----0--0--0--|--8----8----8--10--5----5----5--7--|


  Q    Q    Q    H.              E  E  E  E  E  E  Q    H
------------------------------|----------------------------------|
------------------------------|----------------------------------|
------------5----5------------|--3--5--3-------------------------|
--7----7----------------------|-----------3--5--3--0----0--------|


  Q    E  Q    E  Q    E  Q    E     E  E  E  E  E  E  Q    H
----------------------------------|----------------------------------|
----------------------------------|----------------------------------|
--8----8--8----8--8----8--8----8--|--3--5--3-------------------------|
----------------------------------|-----------3--5--3--0----0--------|


  Q    E  Q    E  Q     E   Q     E     E  E  E  E  E  E  Q    H
-------------------------------------|----------------------------------|
-------------------------------------|----------------------------------|
--8----8--8----8--8----10--10----10--|--3--5--3-------------------------|
-------------------------------------|-----------3--5--3--0----0--------|


  Q    E  Q    E  Q    E  Q    E     E  E  E  E  E  E  Q    H
----------------------------------|----------------------------------|
----------------------------------|----------------------------------|
--8----8--8----8--8----8--8----8--|--3--5--3-------------------------|
----------------------------------|-----------3--5--3--0----0--------|


   Q     E   Q     E  Q    E  Q    E     W.                  W.
--------------------------------------|-------------------|-------------------||
--------------------------------------|-------------------|-------------------||
--10----10--10----10--8----8--8-------|-------------------|-------------------||
-----------------------------------0--|--L----------------|--L----------------||

            
            
Suggest correction
Creating personal tab
Creating personal tab
You can edit any tab online and save it as your Personal.

You can edit, replace or remove any tab part or add personal notes – all changes will be seen only by you.

Personal tabs can be accessed anytime from any device, even offline.
Learn more »
Give kudos to tab author, rate the tab!
1 2 3 4 5
comments
print report bad tab
guest
You may want to rate the tab now too:
select rating
Wanna post a correction for this tab? Suggest correction