Oops, an error
Loading. Please wait.

King And Cross Tab

version 1
version 1

Acoustic

Whole song

Interactive

by Asgeir
6,735 views 12 this week
1 commentread comment
1 2 3 4 5
3 more votes to show rating
add to favorites
×
Save as Personal and add changes to this tab that will be seen only by you. Learn more ›
×
You can save this tab as Personal to edit and correct it or add notes. All changes will be seen only by you. Learn more »
save as personal
new!
launch autoscroll
font size
0
reset
how to read this tab
guitar tuner
Autoscroll
slow
fast
+/-
esc
set tempo
stop
Difficulty
intermediate
I will not tab through the whole song because it's basically the same chords with some minor rythmic alternation and ornamentation.
Please note: This is the accoustic live version, the key is different to the record version.

watch this video for reference:
https://www.youtube.com/watch?v=yfRU-ZyOW_A 

Pluck the chords for more control and staccato. (p= PullOFF, h=HammerOn)

intro/verses:
e|-------------------------------------------------|
B|-----------------------3---------3---------------|
G|---3---------6---------4---------4---------------|
D|---4---------4---------4---------4---5p4h5p4-----|
A|---5---------7---------2--------------------h5p0-|
E|---3 --------5-------------------0---------------|

chorus:
e|-------------------------------------------------|
B|-----------------------3---------3---------------|
G|---3---------6---------4---------4---------------|
D|---4---------4---------4---------4---------------|
A|---5---------7---------2-------------------------|
E|---3 --------5-------------------0-------2-------|



Suggest correction
Give kudos to tab author, rate the tab!
1 2 3 4 5
comments
print report bad tab
1 comment total.
0 reply
Maitinin 19,543 Nov 17, 2014 02:17 PM

Fine tab!
You could, however, comment a bit on the rhythm, perhaps.

- The link is out of order.

- 3rd fret on the G-string, really?

guest
Wanna post a correction for this tab? Suggest correction