Oops, an error
Loading. Please wait.

Cherry Bomb Tab

version 2
version 2

Whole song

Interactive

by Ash
1,260 views 1 this week
no commentswrite comment
1 2 3 4 5
please rate
add to favorites
launch autoscroll
font size
0
reset
how to read this tab
guitar tuner
Tab Pro tools
  • play this tab
  • loop segment
  • change instrument
  • show fretboard
  • metronome
×
Best way to learn
"Cherry Bomb"
Autoscroll
slow
fast
+/-
esc
set tempo
stop
Contributor
Artist: Ash
Song: Cherry Bomb
Tabber: Zeidrich

Standard Tuning

Intro: Bass and weird effects, then...

   C      D      G
e|---------------------|
B|---------------------|
G|-5-55/7-777777-------|
D|-5-55/7-777777-5-55--|
A|-3-33/5-555555-5-55--|
E|---------------3-33--| x2

Verse I & II:

   C      D      G          F       Fm
e|---------------------    ------------------|
B|---------------------    ------------------|
G|-5-55/7-777777-------    ------------------|
D|-5-55/7-777777-5-55--    -3333333333333333-|
A|-3-33/5-555555-5-55--    -3333333333333333-|
E|---------------3-33-- x4 -1111111111111111-|

   C        Am       F        Fm       G
e|----------------------------------------------------------|
B|----------------------------------------------------------|
G|-5-5-5555-------------------------------------------------|
D|-5-5-5555-7-7-7777-3-333333-3-333333-5-555555-------------|
A|-3-3-3333-7-7-7777-3-333333-3-333333-5-555555-----2---2---|
E|----------5-5-5555-1-111111-1-111111-3-333333-3-5---3---3-|

Chorus:

   C        Am       Gm       C        F
e|-------------------------------------------------------|
B|-------------------------------------------------------|
G|-5-555555-------------------5-555555-------------------|
D|-5-555555-7-777777-5-555555-5-555555-3-333333-3-333333-|
A|-3-333333-7-777777-5-555555-3-333333-3-333333-3-333333-|
E|----------5-555555-3-333333----------1-111111-1-111111-|

   Fm       Bb       C       Am       F       G
e|-----------------------------------------------------|
B|-----------------------------------------------------|
G|----------3-333333-5-55555\2-222222------------------|
D|-3-333333-3-333333-5-55555\2-222222-3-33333/5-555555-|
A|-3-333333-1-111111-3-33333\0-000000-3-33333/5-555555-|
E|-1-111111---------------------------1-11111/3-333333-|

Solo I: with lots of wah (played over verse chords)

   C  D         G      C       D          G
e|-2tr3-0-1-0----------------------------------|
B|------------3----------3-3-1-1/3-1---5tr6-5/-|
G|--------------0--0-0-0-------------2---------|
D|---------------------------------------------|
A|---------------------------------------------|
E|---------------------------------------------|

Verse III:

   C      D      G          F       Fm
e|---------------------    ------------------|
B|---------------------    ------------------|
G|-5-55/7-777777-------    ------------------|
D|-5-55/7-777777-5-55--    -3333333333333333-|
A|-3-33/5-555555-5-55--    -3333333333333333-|
E|---------------3-33-- x4 -1111111111111111-|

   C        Am       F        Fm       G
e|----------------------------------------------------------|
B|----------------------------------------------------------|
G|-5-5-5555-------------------------------------------------|
D|-5-5-5555-7-7-7777-3-333333-3-333333-5-555555-------------|
A|-3-3-3333-7-7-7777-3-333333-3-333333-5-555555-----2---2---|
E|----------5-5-5555-1-111111-1-111111-3-333333-3-5---3---3-|

Chorus:

   C        Am       Gm       C        F
e|-------------------------------------------------------|
B|-------------------------------------------------------|
G|-5-555555-------------------5-555555-------------------|
D|-5-555555-7-777777-5-555555-5-555555-3-333333-3-333333-|
A|-3-333333-7-777777-5-555555-3-333333-3-333333-3-333333-|
E|----------5-555555-3-333333----------1-111111-1-111111-|

   Fm       Bb       C       Am       F       G
e|-----------------------------------------------------|
B|-----------------------------------------------------|
G|----------3-333333-5-55555\2-222222------------------|
D|-3-333333-3-333333-5-55555\2-222222-3-33333/5-555555-|
A|-3-333333-1-111111-3-33333\0-000000-3-33333/5-555555-|
E|-1-111111---------------------------1-11111/3-333333-|

Solo II: with lots of wah

   c       D                       G                C         D
e|-0-0-0-0-0-0-0-0-3-0-----3-0-----3-0-----3-0------------------------|
B|--1-1-1-1-1-1-1-1----3-1-----3-1-----3-1-----3-1--5-3-1h3p1-3-1-----|
G|----------------------------------------------------------------0---|
D|------------------------------------------------------------------0-|
A|------------------------------------------------------------------0-|
E|--------------------------------------------------------------------|

          G      C       D               G   C     D
e|-------------------------------------------------------------------7-0---|
B|---------------------------------------------55553111111-3-3b4-3b4-7-0-3-|
G|-2-2-2-00--0--------------------------/7---------------------------------|
D|----------0-00-----------------------------------------------------------|
A|-----------------0-3-0-5b7-5-0-5555555---5-------------------------------|
E|---------------3---------------------------------------------------------|

   F                   Fm
e|-----------------------------------------|
B|-3b4-3b4-3b4-3-3-1-3-3b4-3b4-3b4-3-3-1-3-|
G|-----------------------------------------|
D|-----------------------------------------|
A|-----------------------------------------|
E|-----------------------------------------|

Chorus/Outro:

   C        Am       Gm       C        F
e|-------------------------------------------------------|
B|-------------------------------------------------------|
G|-5-555555-------------------5-555555-------------------|
D|-5-555555-7-777777-5-555555-5-555555-3-333333-3-333333-|
A|-3-333333-7-777777-5-555555-3-333333-3-333333-3-333333-|
E|----------5-555555-3-333333----------1-111111-1-111111-|

   Fm       Bb          C       Am       F       F           G             C
e|---------------------|------------------------|------12----10-----10-8-|----|
B|---------------------|------------------------|---10----10-12--12------|----|
G|----------3-333333---|5-55555\2-222222--------|10----------12----------|-5~-|
D|-3-333333-3-333333---|5-55555\2-222222-3-33333|------------------------|-5~-|
A|-3-333333-1-111111-x2|3-33333\0-000000-3-33333|---------------------x3-|-3~-|
E|-1-111111------------|-----------------1-11111|------------------------|----|

Any comments/feedback welcome
comments
We did not receive enough feedback on this tab! Please rate:
print report bad tab
1 2 3 4 5
I want to post or [tab]
guest
You may want to rate the tab now too:
select rating
Please do not post tabs as comments. Select "correction" instead!