Oops, an error
Loading. Please wait.

Dark And Stormy Tab

by Ash
553 views 1 this week
1 commentread comment
1 2 3 4 5
excellent!
x 1
add to favorites
launch autoscroll
font size
0
reset
how to read this tab
guitar tuner
Tab Pro tools
  • play this tab
  • loop segment
  • change instrument
  • show fretboard
  • metronome
Autoscroll
slow
fast
+/-
esc
set tempo
stop
Contributor
Difficulty
intermediate
----------------------------------------------------------------------------
                          DARK AND STORMY - Ash
----------------------------------------------------------------------------

Tabbed by: Chris Colyer
Email: csc501@york.ac.uk

Tuning:Standard

Intro:
e|---3---|---3----------8-------10---------------------------------------|
B|---4---|---4----------9-------11---------------------------------------|
G|---5---|---5----------10------12---------------------------------------|
D|---5---|---5----------10------12---------------------------------------|
A|-------|---------------------------------------------------------------|
E|-------|---------------------------------------------------------------|

Verse: (Lyrics enter on second repeat)
e|---3--3-3---3-3-3-----8------8---8-8/10--10-10--10-10------------------|
B|---4------4--6---6-4--9----9---9---9/11--11-11--11-11------------------|
G|---5----------------5-10-------------12--------------------------------|x5
D|---5------------------10-------------12--------------------------------|
A|-----------------------------------------------------------------------|
E|-----------------------------------------------------------------------|

Chorus: (On These Summer days..)
Note: This is very faint and some of the bass notes may actually be just bass, which is 
dominant for most of the chorus.
e|----3-3-33-3-333--3-3----------333------3---3----------------3-3-3-33-|
B|----4-4-44-4-444--3-3---4--4-4-444-------6-4-4-3-----3-3-33--3-3-3-33-|
G|--5-5-5-55-5-555--3-3---5--5-5-555--------------5-3--3-3-33--3-3-3-33-|x2
D|--5---------------5-5---5--5-5---------3-----------5-3-3-33--5-5-5-55-|
A|--3--------------5------3--------------3-------------1-1-----5--------|
E|-----------------3---------------------1------------------------------|
(I can't turn away...)
e|----3-3-----3-----------------3-3-3----3-333-3-333-----------------------|
B|----4---6-4---4-3-------------4-----4--4-444-4-444-----------------------|
G|----5-------------5-3---------5------------------------------------------|
D|----5-----------------5-------5------------------------------------------|
A|----3-------------------------3------------------------------------------|
E|-------------------------------------------------------------------------|

Solo: (Plays over Verse)
e|-----3-------3----------------8------8------10---------------------------|
B|-------6---4---4-3---------/6---6-6------6/8-----------------------------|
G|---5----------------5-3------------------------/11~10--8-----------------|
D|-----------------------5-----------------------------10--10-10~8-10-----8|
A|-------------------------------------------------------------------8-10--|
E|-------------------------------------------------------------------------|
...
e|---------------------------3---------------------------------------------|
B|----8-6-8------------------4---------------------------------------------|
G|--5-------8---5-8-7-8-7-5--5---------------------------------------------|
D|-------------------------8-5---------------------------------------------|
A|---------------------------3---------------------------------------------|
E|-------------------------------------------------------------------------|

Verse 2:
e|-----3----------8-------10---------------------------------------|
B|-----4----------9-------11---------------------------------------|
G|-----5----------10------12---------------------------------------|x2
D|-----5----------10------12---------------------------------------|
A|-----3----------8-------10---------------------------------------|
E|-----------------------------------------------------------------|

e|---3--3-3---3-3-3-----8------8---8-8/10--10-10--10-10------------------|
B|---4------4--6---6-4--9----9---9---9/11--11-11--11-11------------------|
G|---5----------------5-10-------------12--------------------------------|x2
D|---5------------------10-------------12--------------------------------|
A|---3------------------8--------------12--------------------------------|
E|-----------------------------------------------------------------------|

Chorus 2
e|----3-3-33-3-333--3-3----------333------3---3----------------3-3-3-33-|
B|----4-4-44-4-444--3-3---4--4-4-444-------6-4-4-3-----3-3-33--3-3-3-33-|
G|--5-5-5-55-5-555--3-3---5--5-5-555--------------5-3--3-3-33--3-3-3-33-|x2
D|--5---------------5-5---5--5-5---------3-----------5-3-3-33--5-5-5-55-|
A|--3--------------5------3--------------3-------------1-1-----5--------|
E|-----------------3---------------------1------------------------------|
(I can't turn away...)
e|----3-3-----3-----------------3-3-----3--------------------------------|
B|----4---6-4---4-3-------------4---6-4---4-3----------------------------|
G|----5-------------5-3---------5-------------5-3------------------------|x4
D|----5-----------------5-------5-----------------5----------------------|
A|----3-------------------------3----------------------------------------|
E|-----------------------------------------------------------------------|

Solo 2:
e|--------------------------------|   |-----------------------|
B|-------------------------8------|   |-----------------------|
G|--5-5-5-3-5-/10-10-10-10---8----|x3 |-3-3-33-/8-8-8-888-7-5~|
D|--------------------------------|   |-----------------------|
A|--------------------------------|   |-----------------------|
E|--------------------------------|   |-----------------------|

Chorus 3
e|----3-3-33-3-333--3-3----------333------3---3----------------3-3-3-33-|
B|----4-4-44-4-444--3-3---4--4-4-444-------6-4-4-3-----3-3-33--3-3-3-33-|
G|--5-5-5-55-5-555--3-3---5--5-5-555--------------5-3--3-3-33--3-3-3-33-|x2
D|--5---------------5-5---5--5-5---------3-----------5-3-3-33--5-5-5-55-|
A|--3--------------5------3--------------3-------------1-1-----5--------|
E|-----------------3---------------------1------------------------------|
(I can't turn away...)
e|----3-3-----3-----------------3-3-----3--------------------------------|
B|----4---6-4---4-3-------------4---6-4---4-3----------------------------|
G|----5-------------5-3---------5-------------5-3------------------------|x4
D|----5-----------------5-------5-----------------5----------------------|
A|----3-------------------------3----------------------------------------|
E|-----------------------------------------------------------------------|

Then:
e|------3-----3-------------------3-----3--------------------------------|
B|--------6-4---4-3-----------------6-4---4-3----------------------------|
G|----5-------------5-3---------5-------------5-3------------------------|x4
D|----------------------5-------------------------5----------------------|
A|-----------------------------------------------------------------------|
E|-----------------------------------------------------------------------|
Over Verse:
e|---3--3-3---3-3-3-----8------8---8-8/10--10-10--10-10------------------|
B|---4------4--6---6-4--9----9---9---9/11--11-11--11-11------------------|
G|---5----------------5-10-------------12--------------------------------|
D|---5------------------10-------------12--------------------------------|
A|-----------------------------------------------------------------------|
E|-----------------------------------------------------------------------|

Finishes on the Cm:
e|---3---|
B|---4---|
G|---5---|
D|---5---|
A|---3---|
E|-------|

Comments, ratings, e-mails all welcome.

| /  slide up
| \  slide down
| h  hammer-on
| p  pull-off
| ~  vibrato
| +  harmonic
| x  Mute note
============================================================================
comments
We did not receive enough feedback on this tab! Please rate:
print report bad tab
1 2 3 4 5
1 comment total.
0 reply
lefthandman9876 wrote on August 14 2008, 05:03 pm

great tab thanks

5 stars =]

I want to post or [tab]
guest
You may want to rate the tab now too:
select rating
Please do not post tabs as comments. Select "correction" instead!