Oops, an error
Loading. Please wait.

End Of The World Tab

by Ash
1,565 views 1 this week
no commentswrite comment
1 2 3 4 5
accurate
x 4
add to favorites
launch autoscroll
font size
0
reset
how to read this tab
guitar tuner
Autoscroll
slow
fast
+/-
esc
set tempo
stop
Help us to improve Ultimate-Guitar.com Take our survey!
×
Author
Difficulty
intermediate
----------------------------------------------------------------------------
                         END OF THE WORLD - Ash
----------------------------------------------------------------------------

Tabbed by: Chris Colyer
Email: csc501@myway.com

Tuning: Standard

Intro:(Is this the end of the world..)
e|---------------3-------------3-----------------------------------------|
B|---------------------------------------8-8--8-7------------------------|
G|------------------------5--------------7-7--7-7------------------------|
D|--------5--------------------------------------------------------------|x2
A|-----------------0-3-----------3-5-------------------------------------|
E|-----3-----------------------------------------------------------------|

Verse: (I'm feeling low today..)
e|------3--------3---------2-x-x-----------------------------------------|
B|------3-x-x----5-x-x--3--3-x-x-----------------------------------------|
G|------4-x-x--5-5-x-x--4--4-x-x---2--2-x-x------------------------------|
D|---5--5-x-x--5-5-x-x--4--4-x-x---0--0-x-x------------------------------|x2
A|---5---------3--------2----------0--0-x-x------------------------------|
E|---3-------------------------------------------------------------------|

e|-------------------------------------------------------------------------|
B|---3-3-33--3-3-33--3-3-33------------------------------------------------|
G|---4-4-44--4-4-44--4-4-44---2--2-x-x-------------------------------------|
D|---4-4-44--4-4-44--4-4-44---0--0-x-x-------------------------------------|
A|---2-------2-------2--------0--0-----------------------------------------|
E|-------------------------------------------------------------------------|

e|------3--------3---------2-x-x-----------------------------------------|
B|------3-x-x----5-x-x--3--4-x-x-----------------------------------------|
G|------4-x-x--5-5-x-x--4--4-x-x---2--2-x-x------------------------------|
D|---5--5-x-x--5-5-x-x--4--4-x-x---0--0-x-x------------------------------|x2
A|---5---------3--------2----------0--0-x-x------------------------------|
E|---3-------------------------------------------------------------------|
                                              (Is this the End of the)
e|-------------------------------------------------------------------------|
B|---3-3-33--3-3-33--3-3-33------------------------------------------------|
G|---4-4-44--4-4-44--4-4-44---2--2-x-x------7--7--7--7--7--7---------------|
D|---4-4-44--4-4-44--4-4-44---0--0-x-x------7--7--7--7--7--7---------------|
A|---2-------2-------2--------0--0----------5--5--5--5--5--5---------------|
E|-------------------------------------------------------------------------|

Chorus:
e|------3--------3-------------------------------------------------------|
B|------3-3-3----5-5-5--7--7--7--7---------------------------------------|
G|------4-4-4--5-5-5-5--7--7--7--7---------------------------------------|
D|---5--5-5-5--5-5-5-5--7--7--7--7---------------------------------------|x2
A|---5---------3--------5--5--5--5---------------------------------------|
E|---3-------------------------------------------------------------------|

e|-------------------------------------------------------------------------|
B|-------------------------------------------------------------------------|
G|--9-99---8-88---7-77---6-66---5-5-5-7--4-4-4-4--------------------------|
D|--x-xx---x-xx---x-xx---x-xx---x-x-x-x--x-x-x-x---------------------------|
A|--7-77---6-66---5-55---4-44---3-3-3-5--2-2-2-2---------------------------|
E|-------------------------------------------------------------------------|

Verse 2:
e|------3--------3---------2-x-x-----------------------------------------|
B|------3-x-x----5-x-x--3--3-x-x-----------------------------------------|
G|------4-x-x--5-5-x-x--4--4-x-x---2--2-x-x------------------------------|
D|---5--5-x-x--5-5-x-x--4--4-x-x---0--0-x-x------------------------------|x2
A|---5---------3--------2----------0--0-x-x------------------------------|
E|---3-------------------------------------------------------------------|
(ah ow ah ow..)                           (is this the end of the)
e|-------------------------------------------------------------------------|
B|-------------------------------------------------------------------------|
G|------------5-5--4-4--7-7---------5-5----7-7-7-7-7-7-7-7-----------------|
D|-----5--5---5-5--4-4--7-7---5-5---5-5----7-7-7-7-7-7-7-7-----------------|
A|-----5--5---3-3--2-2--5-5---5-5---3-3----5-5-5-5-5-5-5-5-----------------|
E|-----3--3-------------------3-3------------------------------------------|

Chorus 2:
e|------3--------3-------------------------------------------------------|
B|------3-3-3----5-5-5--7--7--7--7---------------------------------------|
G|------4-4-4--5-5-5-5--7--7--7--7---------------------------------------|
D|---5--5-5-5--5-5-5-5--7--7--7--7---------------------------------------|x3
A|---5---------3--------5--5--5--5---------------------------------------|
E|---3-------------------------------------------------------------------|

Solo: (plays over the chorus 2)
Guitar 1 (main)
e|---10-------------------------------------/7----------------------------|
B|-----12-10h12p8-------------------------------------8--------8p7h8---7~-|
G|---------------9h12p7-7h9p5/7-----5-------------------------------------|
D|-----------------------------9-7-9--------------------------------------|
A|------------------------------------------------------------------------|
E|------------------------------------------------------------------------|
Guitar 2 (backing - simultaneously)
e|-------------------------------------------------------------------------|
B|----------------------------------12-11-9--12-11-9--12-11-9--12-11-12-11~|
G|--------------------------------------12-------12-------12---------------|
D|-------------------------------------------------------------------------|
A|-------------------------------------------------------------------------|
E|------------------------------------------------------------------------| 

Guitar 1 (main)                                                gradual bend
e|-------------------------------------------------------------------------|
B|-----5---------------------------------------------------------10-10bu12-|
G|-----7bu9bd7------------/5-----------------------------------------------|
D|-------------7-9------------------5----------4-5-4~----------------------|
A|-----------------3-------------------------------------------------------|
E|-------------------------------------------------------------------------|
Guitar 2 (backing)
e|-------------------------------------------------------------------------|
B|-------------------------------------------------------------------------|
G|11h12p11p9h11---12-11-9-12-11-9-12-11-9-12-11-12-11~-12-11-9-7-9-7-------|
D|-----------------------12------12------12-------------------------9-7-5--|
A|-------------------------------------------------------------------------|
E|-------------------------------------------------------------------------|

Verse 3: (can hardly see the stars)
e|------3--------3---------2-x-x-----------------------------------------|
B|------3-x-x----5-x-x--3--3-x-x-----------------------------------------|
G|------4-x-x--5-5-x-x--4--4-x-x---2--2-x-x------------------------------|
D|---5--5-x-x--5-5-x-x--4--4-x-x---0--0-x-x------------------------------|x2
A|---5---------3--------2----------0--0-x-x------------------------------|
E|---3-------------------------------------------------------------------|
(that's the catch, it's such a beautiful confusion)
e|-----------------------------------------------------------------------|
B|-----------------------------------------------------------------------|
G|---5----5--4----4-----2--2----7--7----5----5--4----4-------------------|
D|---5----5--4----4-----0--0----7--7----5----5--4----4-------------------|
A|---3----4--2----2-----0--0----5--5----3----3--2----2-------------------|
E|-----------------------------------------------------------------------|
(It's such a beau-i-ful con-fu-sion I can't stand it is this the end of the)
e|-----------------------------------------------------------------------|
B|-----------------------------------------------------------------------|
G|---7--7--7--7--7--7--7--7--7--7--7--7--7--7--7--7----------------------|
D|---7--7--7--7--7--7--7--7--7--7--7--7--7--7--7--7----------------------|
A|---5--5--5--5--5--5--5--5--5--5--5--5--5--5--5--5----------------------|
E|-----------------------------------------------------------------------|

Final Chorus:
e|------3--------3-------------------------------------------------------|
B|------3-3-3----5-5-5--7--7--7--7---------------------------------------|
G|------4-4-4--5-5-5-5--7--7--7--7---------------------------------------|
D|---5--5-5-5--5-5-5-5--7--7--7--7---------------------------------------|x3
A|---5---------3--------5--5--5--5---------------------------------------|
E|---3-------------------------------------------------------------------|
...
e|-----------------------------------------------------------------------|
B|-----------------------------------------------------------------------|
G|-----------------------------------------------------------------------|
D|---7---7-----4---4-----3--3--3--3---7---7-----4---4-----3--3--3--3-----|
A|---7---7-----4---4-----3--3--3--3---7---7-----4---4-----3--3--3--3-----|
E|---5---5-----2---2-----1--1--1--1---5---5-----2---2-----1--1--1--1-----|
(owwwwoooooooooooooooooooooooooo)
e|------0---------0-------0------0---------------------------------------|
B|--------0---------0-------0------0-------------------------------------|
G|-----------------------------------------------------------------------|
D|-----------------------------------------------------------------------|
A|--2----------2-------2-------2-----------------------------------------|
E|--0----------0-------0-------0-----------------------------------------|
Chorus Reprise (Single Tone shift up)
e|--------------------------------------------------|  |------------|
B|----------7--7----9-9-9-9-------------------------|  |-------7--7-|
G|---6--6---7--7----9-9-9-9-------------------------|  |-6--6--7--7-|
D|---7--7---7--7----9-9-9-9-------------------------|x3|-7--7--7--7-|
A|---7--7---5--5----7-7-7-7-------------------------|  |-7--7--5--5-|
E|---5--5-------------------------------------------|  |-5--5-------|
(ahhhhhhhhh)
e|----------------------------------------------------------------|
B|--5--5--5--5--------5------5------------------------------------|
G|--6--6--6--6----------4------4----------------------------------|
D|--6--6--6--6------4-----4---------------------------------------|x2
A|--4--4--4--4------2-----2---------------------------------------|
E|----------------------------------------------------------------|
Ending Chord:
e|-----|
B|--7--|
G|--7--|
D|--7--|
A|--5--|
E|-----|



| /  slide up
| \  slide down
| h  hammer-on
| p  pull-off
| ~  vibrato
| +  harmonic
| x  Mute note
============================================================================
Suggest correction
What's this?
You can suggest a correction to this tab. Community and Mods will review your correction and vote to approve or reject it.
comments
print report bad tab
guest
You may want to rate the tab now too:
select rating
Please do not post tabs as comments. Select "correction" instead!