Oops, an error
Loading. Please wait.

Evil Eye Tab

version 1
version 1

Whole song

Interactive

by Ash
3,276 views 1 this week
no commentswrite comment
1 2 3 4 5
x 9
add to favorites
launch autoscroll
font size
0
reset
how to read this tab
guitar tuner
Autoscroll
slow
fast
+/-
esc
set tempo
stop
Help us to improve Ultimate-Guitar.com Take our survey!
×
ASH - EVIL EYE
intro x1
|-5-------5-----5---5------5-------5---5-------5------5---------|
|---6-------6-----6----6------6------6----6------6-------6------|
|------7------7-----------5------5------------6------6----------|
|---------------------------------------------------------------|
|---------------------------------------------------------------|
|---------------------------------------------------------------|

intro is played 4 times for verse 1 with the lyrics:
She's giving me the evil eye
A poison smile
Asking if I will stay
A while
I made a promise to the night
In blood, (In blood)
I signed, (I signed)
The line, (The line)

bridge
|-----------------|
|-----------------|
|-----------------|
|7-8-7-8-7-8-7-8--|
|7-8-7-8-7-8-7-8--|
|5-6-5-6-5-6-5-6--|

chorus x4 (on 4th time miss out the ** and do bridge)
|--------------------------------------------------------------------|
|--------------------------------------------------------------------|
|-------------------------------------------------*7-7-7-7-5-5-5-5---|
|-8-8-8-8-8-8-8-8-3-3-3-3-3-3-3-3-7-7-7-7-7-7-7-7-*7-7-7-7-5-5-5-5---|
|-8-8-8-8-8-8-8-8-3-3-3-3-3-3-3-3-7-7-7-7-7-7-7-7-*5-5-5-5-3-3-3-3---|
|-6-6-6-6-6-6-6-6-1-1-1-1-1-1-1-1-5-5-5-5-5-5-5-5--------------------|

Giving me the evil eye
I can't deny
Oh that girl, she's so damn fine
Divine, so fine
Bound through all space and time
Shivers running down my spine
Giving me the evil eye
She's mine

then intro x 4 for verse 2
Sinister parasite
She occupies
Every little space inside
My mind
Corrupt thoughts here enshrined
So clandestine (So clandestine )
Sublime (Sublime)

bridge x1
chorus x4
solo x2
|--------------------------------------------------------------|
|--------------------------------------------------------------|
|--------------------------------------------------------------|
|--------------------------------------------------------------|
|---3-h-5-p-3-0-----------------/5-----------------------------|
|---------------------3-/-5-3-1--------------------------------|

bridge part1 x3
|---------------------------------|
|---------------------------------|
|-----------------5-5-5-5-7-7-7-7-|
|-8-8-8-8-8-8-8-8-5-5-5-5-7-7-7-7-|
|-8-8-8-8-8-8-8-8-3-3-3-3-5-5-5-5-|
|-6-6-6-6-6-6-6-6-----------------|

Love is pain and love is blind
You don't know when you cross that line
Pretty soon you're intertwined

bridge part2 x1
|---------------------------------|
|---------------------------------|
|-----------------8-8-8-8-8-8-8-8-|
|-2-2-2-2-2-2-2-2-8-8-8-8-8-8-8-8-|
|-2-2-2-2-2-2-2-2-6-6-6-6-6-6-6-6-|
|-0-0-0-0-0-0-0-0-----------------|

With this girl

bridge  part1 x3
Thunder rolls and lightning strikes
But you don't know what it's like
To be all torn up inside

bridge part2 x1
In this world

also during the bridge gtr 2 ( Charlotte) plays:
|-5-------5-----5---5------5--------|
|---6-------6-----6----6------6-----|
|------7------7-----------5------7--|
|-----------------------------------|
|-----------------------------------|
|-----------------------------------|

chorus2 x6 (on sixth time miss out ** and do bridge and end)
|--------------------------------------------------------------------|
|--------------------------------------------------------------------|
|-------------------------------------------------*7-7-7-7-5-5-5-5---|
|-8-8-8-8-8-8-8-8-3-3-3-3-3-3-3-3-7-7-7-7-7-7-7-7-*7-7-7-7-5-5-5-5---|
|-8-8-8-8-8-8-8-8-3-3-3-3-3-3-3-3-7-7-7-7-7-7-7-7-*5-5-5-5-3-3-3-3---|
|-6-6-6-6-6-6-6-6-1-1-1-1-1-1-1-1-5-5-5-5-5-5-5-5--------------------|

Giving me the evil eye
I can't deny
Oh that girl, she's so damn fine
Divine, so fine
Bound through all space and time
Shivers running down my spine
Giving me the evil eye
She's mine; all mine yeah
Promised to a valentine
Forever when the twelve bells chime
Giving me the evil eye
She's mine
Suggest correction
comments
print report bad tab
guest
You may want to rate the tab now too:
select rating
Wanna post a correction for this tab? Suggest correction