Oops, an error
Loading. Please wait.

Girl From Mars Chords

version 4
version 4

Interactive

by Ash
851 views 3 this week
no commentswrite comment
1 2 3 4 5
please rate
add to favorites
launch autoscroll
font size
0
reset
transpose
0
reset
simplify chords
display chords
guitar tuner
Tab Pro tools
  • play this tab
  • loop segment
  • change instrument
  • show fretboard
  • metronome
×
Best way to learn
"Girl From Mars"
Autoscroll
slow
fast
+/-
esc
set tempo
stop
Contributor
Difficulty
intermediate
Ash - Girl From Mars


A                    E                       Dmaj7
Do you remember the time I knew a Girl From Mars?
        Bm
I don't know if you knew that.
A                           E
Oh we'd stay up late playing cards,
                Dmaj7
Henri Winterman Cigars.
            Bm                D                       
Though she never told me her name,
          E                   A
I still love you, Girl From Mars.


A               E      Dmaj7        Bm
Sitting in our dreamy days by the water's edge,
D          E         A
On a cool summer's night.
A                 E            Dmaj7
Fireflies and the stars in the sky,
        Bm
Gentle glowing light,
D        E        A
From your cigarette.
A             E       Dmaj7        Bm
The breeze blowing softly on my face,
D             E         A
Reminds me of something else.
A                  E       Dmaj7     Bm
Something that in my memory has been replaced,
D            E          Bm
Suddenly it all comes back.
D            E          A
And as I look to the stars.

A                    E                       Dmaj7
I remember the time I knew a Girl From Mars
        Bm
I don't know if you knew that.
A                           E
Oh we'd stay up late playing cards,
                Dmaj7
Henri Winterman Cigars.
            Bm                D                       
Though she never told me her name,
          E                   A
I still love you, Girl From Mars.


Surging through the darkness over the moonlight strand,
Electricity in the air.
Twisting all through the night on the terrace,
Now that summer's here.
I know you are almost in love with me,
I can see it in your eyes.
Strange light shimmering over the sea tonight,
And it almost blows my mind
And as I look to the stars

I remember the time I knew a Girl From Mars,
I don't know if you knew that.
Oh we'd stay up late playing cards,
Henri Winterman Cigars.
Though she never told me her name,
I still love you, Girl From Mars.

SOLO: at the end of the tab

Today I sleep in the chair by the window,
It felt as if you'd returned.
I thought that you were standing over me,
When I woke there was no-one there.
I still love you, Girl From..
Mars

Do you remember the time I knew a Girl From Mars?
I don't know if you knew that.
Oh we'd stay up late playing cards,
Henri Winterman Cigars.
Though she never told me her name.

Do you remember the time I knew a Girl From Mars?
I don't know if you knew that.
Oh we'd stay up late playing cards.
Henri Winterman Cigars.
And I still dream of you,
I still love you, Girl From Mars

Solo:

E |--------4--------------4L---|--4--4-----5-----5--5--5----|
B |-----------7-----7b---------|----------------------------|
G |----------------------------|----------------------------|
D |----------------------------|----------------------------|
A |----------------------------|----------------------------|
E |----------------------------|----------------------------|


--------------5-----------------5-----------10L-----|
--7--------------7--------------7-------------------|
----------------------------------------------------|
----------------------------------------------------|
----------------------------------------------------|
----------------------------------------------------|


--10-9-----7-----9-----0----|
----------------------------|
----------------------------|
----------------------------|
----------------------------|
----------------------------|


--4h-0--------4-------------------------------------|
--------------------7-----------7b----------9L------|
----------------------------------------------------|
----------------------------------------------------|
----------------------------------------------------|
----------------------------------------------------|


----------------------------|
--9--9-----10----10-10-10---|
----------------------------|
----------------------------|
----------------------------|
----------------------------|


--------------------------7-----------------10L-----|
--7-----------7--------------7--7-------------------|
----------------------------------------------------|
----------------------------------------------------|
----------------------------------------------------|
----------------------------------------------------|


--10-12----9-----10-10-9----|--12h10h9--12h10h9--12h10h9--12h11h9----|
----------------------------|----------------------------------------|
----------------------------|----------------------------------------|
----------------------------|----------------------------------------|
----------------------------|----------------------------------------|
----------------------------|----------------------------------------|


--10h9h-7-------------------------------|
-----------10h9h-7----------------------|
--------------------9h-7h-6-------------|
-----------------------------9h-7h-6----|
----------------------------------------|
----------------------------------------|


--9h----7h----5-----9h----7h----5-----9h----7h----5-------------------------|
--------------------------------------------------------7--------7L---------|
----------------------------------------------------------------------------|
----------------------------------------------------------------------------|
----------------------------------------------------------------------------|
----------------------------------------------------------------------------|


-----------------7-----7----|--9b------------------------|
--7--------10---------------|-----------10----7----------|
----------------------------|-----------------------9L---|
----------------------------|----------------------------|
----------------------------|----------------------------|
----------------------------|----------------------------|


-----------------7--7--7----|--9L----------------9b-9L---|
-----7-----7--10------------|----------------------------|
--9-------------------------|----------------------------|
----------------------------|----------------------------|
----------------------------|----------------------------|
----------------------------|----------------------------|


--9--7-----------7----------||
-----------10---------------||
----------------------------||
----------------------------||
----------------------------||
----------------------------||
comments
We did not receive enough feedback on this tab! Please rate:
print report bad tab
1 2 3 4 5
I want to post or [tab]
guest
You may want to rate the tab now too:
select rating
Please do not post tabs as comments. Select "correction" instead!