Oops, an error
Loading. Please wait.

Goldfinger Tab

version 1
version 1

Whole song

Interactive

by Ash
2,801 views 1 this week
1 commentread comment
1 2 3 4 5
2 more votes to show rating
add to favorites
launch autoscroll
font size
0
reset
how to read this tab
guitar tuner
Autoscroll
slow
fast
+/-
esc
set tempo
stop
Help us to improve Ultimate-Guitar.com Take our survey!
×
Author
Difficulty
intermediate
Hi people,

This is my very first tab, so be gentle! This is Goldfinger from Ash's 1977 album. 

Chords used:

B7sus4    Bm7    G#m    B    F#    C5    A#/Bb    Gm    Cm    F    E    A

6         6      4      7    2     x     6        3     3     1    0    0
6         6      4      7    2     x     6        3     3     1    0    2
7         7      4      8    3     x     7        3     4     2    1    2
6         6      6      9    4     11    7        5     5     3    2    2
7         8      6      9    4     11    8        5     5     3    2    0
6         6      4      7    4     9     6        3     5     1    0    0

Intro:

B7sus4   Bm7   G#m   

B    F# (3 times)

B    C5   B7sus4 

Verse:

A#/Bb   Gm   Cm   F   A#/Bb

A#/Bb   Gm   Cm   F   E   A   Cm   F   A#/Bb

Chorus:

B7sus4   Bm7   G#m   

B    F# (3 times)

B    C5   B7sus4


Solo:

e|-----------------------------------6-------------------------6--|
B|--3--------------4-----4--------------3-------------4-----------|
G|-----3--------3-----3-----3--3--3--------3-------3-----3--3-----|
D|--------3--4--------------------------------3--4----------------|
A|----------------------------------------------------------------|
E|----------------------------------------------------------------|


e|--------------------------------6--------------------------6--|
B|--3--------------4-----------------3--------------4--4--------|
G|-----3--------3-----3-----3--3--------3--------3--------3-----|
D|--------3--4-----------4-----------------3--4-----------------|
A|--------------------------------------------------------------|
E|--------------------------------------------------------------|

So that pretty much al you need to know, you listen to the song to get the rhythm and stuff.
Suggest correction
Give kudos to tab author, rate the tab!
1 2 3 4 5
comments
print report bad tab
1 comment total.
0 reply
Wilson Stoat 78 Dec 26, 2015 05:55 PM

Shouldn't this be Bb7sus4, not B7sus4?

guest
You may want to rate the tab now too:
select rating
Wanna post a correction for this tab? Suggest correction