Oops, an error
Loading. Please wait.

Ichiban Tab

by Ash
774 views 1 this week
no commentswrite comment
1 2 3 4 5
please rate
add to favorites
launch autoscroll
font size
0
reset
how to read this tab
guitar tuner
Tab Pro tools
  • play this tab
  • loop segment
  • change instrument
  • show fretboard
  • metronome
×
Best way to learn
"Ichiban"
Autoscroll
slow
fast
+/-
esc
set tempo
stop
Contributor
Ash
Ichiban
A-Z Series, subscribe at www.ash-official.com
Guitarist: Tim Wheeler
Note: A couple of chords in the chorus are just guesses but sound pretty accurate
They're minor chords but played a weird way, I worked out the shape of them by
watching a live video of the song.

Intro part 1 (all tremolo picked)

e |-----------------------|
B |-----------------------|
G |-17-----16---14---13---| x4
D |-----------------------|
A |-15-----14---12---11---|
E |-----------------------|

Intro part 2

e |-------------------|
B |-------------------|
G |-------------------| x2
D |-------------------|
A |-7-7-7-7-7-7-----5-|
E |-5-5-5-5-5-5-0h3-3-|

Verse

e |-------------------|
B |-------------------|
G |-------------------| x2
D |-------------------|
A |-7-7-7-7-7-7-----5-|
E |-5-5-5-5-5-5-0h3-3-|

e |-----------------5-5-5-5-5-5-------|
B |---------7-7-7-7-5-5-5-5-5-5-------|
G |---------7-7-7-7-6-6-6-6-6-6-------|
D |-5-5-5-5-7-7-7-7-7-7-7-7-7-7-----5-|
A |-5-5-5-5-5-5-5-5-7-7-7-7-7-7-----5-|
E |-3-3-3-3---------5-5-5-5-5-5-0h3-3-|

e |-------------------|
B |-------------------|
G |-------------------| x2
D |-9-9-9-9-9-9-----7-|
A |-9-9-9-9-9-9-----7-|
E |-7-7-7-7-7-7-0h5-5-|

e |---------5-5-5-5-----------------|
B |-9-9-9-9-5-5-5-5-7-7-7-7-7-7-7-7-|
G |-9-9-9-9-6-6-6-6-7-7-7-7-7-7-7-7-|
D |-9-9-9-9-7-7-7-7-7-7-7-7-7-7-7-7-|
A |-7-7-7-7-7-7-7-7-5-5-5-5-5-5-5-5-|
E |---------5-5-5-5-----------------|

Chorus

e |-------------------------------------------------|
B |-------------------------------------12-12-12-12-|
G |-11-11-11-11-12-12-12-12-9--9--9--9--12-12-12-12-|
D |-------------------------10-10-10-10-12-12-12-12-|
A |-9--9--9--9--10-10-10-10-10-10-10-10-10-10-10-10-|
E |-11-11-11-11-12-12-12-12-8--8--8--8--------------|

e |-------------------------------------------------|
B |-------------------------------------------------|
G |-17-17-17-17-19-19-19-19-11-11-11-11-11-11-12-12-|
D |-------------------------12-12-12-12-12-12-------|
A |-15-15-15-15-17-17-17-17-12-12-12-12-12-12-10-10-|
E |-17-17-17-17-19-19-19-19-10-10-10-10-10-10-12-12-|

Solo

e |--------------------------------|
B |-12--12--12--12-----------------|
G |-14b-14b-14b-14b----------------|
D |-------------------7b-7p5-----7-|
A |--------------------------7p5---|
E |--------------------------------|

e |----------------------------------------------------------------|
B |-15-15-12-12----------------------------------------------------|
G |-------------14-14-12-12----------------------------------------|
D |-------------------------14-14-12-12----------------------------|
A |-------------------------------------14-14-12-12----12-12h14----|
E |-------------------------------------------------15----------12-|

e |----------------------------------------------|
B |------------14--14--14--14----16--16--16--18--|
G |-14h16-12---16b-16b-16b-16b---18b-18b-18b-20b-|
D |-14-------------------------------------------|
A |----------------------------------------------|
E |----------------------------------------------|

e |-------------------------------------------------|
B |-17-17-14-14-------------------------------------|
G |-------------16-16-14-14-------------------------|
D |-------------------------16-16-14-14-------------|
A |-------------------------------------16-16-14-14-|
E |-------------------------------------------------|

e |-------------------------------------------------------|
B |-------------------------------------------14-14-17-17-|
G |-------------------------------14-14-16-16-------------|
D |-------------------14-14-16-16-------------------------|
A |-------14-14-16-16-------------------------------------|
E |-15-15-------------------------------------------------|

e |-14-14-17-17-19-19-21-21-21*-|
B |-----------------------------|
G |-----------------------------|
D |-----------------------------|
A |-----------------------------|
E |-----------------------------|

*Last note is trem picked.
That's everything, enjoy!
www.youtube.com/user/stuart2407
comments
We did not receive enough feedback on this tab! Please rate:
print report bad tab
1 2 3 4 5
I want to post or [tab]
guest
You may want to rate the tab now too:
select rating
Please do not post tabs as comments. Select "correction" instead!