Oops, an error
Loading. Please wait.

Kung Fu Tab

version 3
version 3

Whole song

Interactive

by Ash
675 views 1 this week
no commentswrite comment
1 2 3 4 5
please rate
add to favorites
launch autoscroll
font size
0
reset
how to read this tab
guitar tuner
Tab Pro tools
  • play this tab
  • loop segment
  • change instrument
  • show fretboard
  • metronome
Autoscroll
slow
fast
+/-
esc
set tempo
stop
Contributor
Kung Fu by Ash
Corrections: Retro_jetro@hotmail.co.uk
I'm pretty sure this is what to play. Sounds like it.

Intro
e-----------------------------------|
B-----------------------------------|
G--9-9-9-9-9-9-9-9-9-9-9-9-9-9-9-9--|
D-----------------------------------|
A--7-7-7-7-7-7-7-7-7-7-7-7-7-7-7-7--|
E-----------------------------------|

e-----------------------------------|
B-----------------------------------|
G--9-9-----9-9----------------------|
D--9-9-9-9-9-9-9-9-7-7-7-7-9-9-9-9--|
A--7-7-9-9-7-7-9-9-7-7-7-7-9-9-9-9--|
E------7-7-----7-7-5-5-5-5-7-7-7-7--|


Verse
e-----------------------------------|
B-----------------------------------|
G--9-9-----9-9----------------------| 
D--9-9-9-9-9-9-9-9-7-7-7-7-9-9-9-9--|
A--7-7-9-9-7-7-9-9-7-7-7-7-9-9-9-9--|
E------7-7-----7-7-5-5-5-5-7-7-7-7--|


Chorus
e-----------------------------------|
B-----------------------------------|
G--7-7---------------------9-9-9-9--|
D--7-7-7-7-9-9-7-7-5-5-5-5----------|
A--5-5-7-7-9-9-7-7-5-5-5-5-7-7-7-7--|
E------5-5-7-7-5-5-3-3-3-3----------|

Bridge
e-----------------------------------|
B-----------------------------------|
G--9-9-9-9-9-9-9-9-9-9-9-9-9-9-9-9--|
D-----------------------------------|
A--7-7-7-7-7-7-7-7-7-7-7-7-7-7-7-7--|
E-----------------------------------|


e----------------------------------------------|
B----------------------------------------------|
G----------------------------------------------| 
D----------------------------------------------|
A----------------------------------------------|
E--1-2-3/(hold for a few seconds then slide)---|


I cant be bothered putting it in order. its simple enough.
comments
We did not receive enough feedback on this tab! Please rate:
print report bad tab
1 2 3 4 5
I want to post or [tab]
guest
You may want to rate the tab now too:
select rating
Please do not post tabs as comments. Select "correction" instead!