Oops, an error
Loading. Please wait.

Renegade Cavalcade tab

version 3
version 3

Whole song

Interactive

by Ash
857 views 1 this week
no commentswrite comment
1 2 3 4 5
2 more votes to show rating
add to favorites
×
Save as Personal and add changes to this tab that will be seen only by you. Learn more ›
×
You can save this tab as Personal to edit and correct it or add notes. All changes will be seen only by you. Learn more »
launch autoscroll
font size
0
reset
how to read this tab
guitar tuner
edit
Autoscroll
slow
fast
+/-
esc
set tempo
stop
Author
Ash Renegade cavalcade
From the album Meltdown
Track 7
Tabbed by Liam
Email: guitar_rocker_47@hotmail.com
Tuning Standard
Date: 16/04/05 (it’s my G.C.S.E’s soon and instead of revising im doin this, oh well!)

IMPORTANT NOTE below is NOT the position of where you play the song because you have a
capo fitted on the 7th fret so add 7 to every fret and add a capo at the 7th fret because
its like the main nut of the guitar has moved, if this confuses you (just like it used to
confuse me) leave a comment or email.

This is not the song! This is an example of how the capo works

This is how you write it
e|-------------------------------------|
B|-------------------------------------|
G|-----0---0---0--------2-----0---0----|
D|-------2---2---2--------2------------|
A|--2----------------0-----------------|
E|--------------------------3---2---0--|
PM  **************      *****   *

But this is how you play it on the guitar with capo fitted on the 7th fret
e|-------------------------------------|
B|-------------------------------------|
G|-----7---7---7--------9-----7---7----|
D|-------9---9---9--------9------------|
A|--9----------------7-----------------|
E|-------------------------10---9---7--|
PM  *************************   *   *

If this is still confusing and don’t be embarrassed if it is cos it is confusing leave a 
or email,

Now to the song:

Intro/verse
e|-------------------------------------|
B|-------------------------------------|
G|-----0---0---0--------2-----0---0----|
D|-------2---2---2--------2------------|
A|--2----------------0-----------------|
E|--------------------------3---2---0--|
PM  **************      *****   *

Pre Chorus


Chorus
e|-3--3-3-3-----------------------0-0--2-2--|
B|-3--3-3-3--1--1-1-1-------------1-1--3-3--|
G|-0--0-0-0--2--2-2-2--1--1-1-1---0-0--2-2--|
D|-0--0-0-0--2--2-2-2--2--2-2-2---2-2--0-0--| x2
A|-2--2-2-2--0--0-0-0--2--2-2-2---3-3-------|
E|-3--3-3-3------------0--0-0-0-------------|

e|-3--3-3-3-----------------------0-0--2-2--|
B|-3--3-3-3--1--1-1-1--1--1-1-1---1-1--3-3--|
G|-0--0-0-0--2--2-2-2--0--0-0-0---0-0--2-2--|
D|-0--0-0-0--2--2-2-2--0--0-0-0---2-2--0-0--| x2
A|-2--2-2-2--0--0-0-0--2--2-2-2---3-3-------|
E|-3--3-3-3---------------------------------|

Post Chorus (‘hey, hey, hey ya ay’)
e|--------------------------------------------|
B|--------------------------------------------|
G|-----0--------0-------0--------0-------2----|
D|-------2--------2-------2--------2-------2--|
A|--2--------2-------2---------2------0-------|
E|--------------------------------------------|
PM  ****************************************

(‘hey, hey, hey ya ay’)
e|--------------------------------------------|
B|--------------------------------------------|
G|-----0--------0-------0--------0-------2----|
D|-------2--------2-------2--------2-------2--|
A|--2--------2-------2---------2------0-------|
E|--------------------------------------------|
PM  ****************************************

            
            
Suggest correction
Creating personal tab
Creating personal tab
You can edit any tab online and save it as your Personal.

You can edit, replace or remove any tab part or add personal notes – all changes will be seen only by you.

Personal tabs can be accessed anytime from any device, even offline.
Learn more »
Give kudos to tab author, rate the tab!
1 2 3 4 5
comments
print report bad tab
guest
You may want to rate the tab now too:
select rating
Wanna post a correction for this tab? Suggest correction