Oops, an error
Loading. Please wait.

Shining Light tab

version 3
version 3

Whole song

Interactive

by Ash
2,064 views 1 this week
no commentswrite comment
1 2 3 4 5
x 3
add to favorites
×
Save as Personal and add changes to this tab that will be seen only by you. Learn more ›
×
You can save this tab as Personal to edit and correct it or add notes. All changes will be seen only by you. Learn more »
launch autoscroll
font size
0
reset
how to read this tab
guitar tuner
edit
Autoscroll
slow
fast
+/-
esc
set tempo
stop
Author
Difficulty
----------------------------------------------------------------------------
                             Shining Light - Ash
-----------------------------------------------------------------------------
Tabbed by:darryl doyle

this is my second tab and im obsessed with guitar but im sort of shitty at tabbing

ps im only 12 and im telling u this so u dont think that im like completely shit at 
and might have pity hehehhehehehehhhahhahahahah

please rate


Intro

e|-----10-10------10---10--10-8--10--10-10-9--7--7-7--10-10-10--10---|
B|-----10-10------10---12--10-8--10--10-10-9--7--7-7--12-12-10--10---|
G|-----11-11------11---12--11-9--11--11-11-10-7--7-7--12-12-11--11---|
D|-----12-12------12---12--12-10-12--12-12-11-9--9-9--12-12-12--12---|
A|-----12-12------12---10--12-10-12--12-12-11-9--9-9--10-10-12--12---|
E|--10-10-10--10--10-------10-8--10--10-10-9--7--7-7--------10--10---|


e|-10-10-10-10-10-10----------|
B|-10-10-10-10-10-10----------|
G|-11-11-11-11-11-11----------|
D|-12-12-12-12-12-12----------|
A|-12-12-12-12-12-12----------|
E|-10-10-10-10-10-10----------|


e|-----10-10------10---10--10-8--10--10-10-9--7--7-7--10-10-10--10---|
B|-----10-10------10---12--10-8--10--10-10-9--7--7-7--12-12-10--10---|
G|-----11-11------11---12--11-9--11--11-11-10-7--7-7--12-12-11--11---|
D|-----12-12------12---12--12-10-12--12-12-11-9--9-9--12-12-12--12---|
A|-----12-12------12---10--12-10-12--12-12-11-9--9-9--10-10-12--12---|
E|--10-10-10--10--10-------10-8--10--10-10-9--7--7-7--------10--10---|
    Roman Candles that burn....

e|-10-10-10-10-10-10----------|
B|-10-10-10-10-10-10----------|
G|-11-11-11-11-11-11----------|
D|-12-12-12-12-12-12----------|
A|-12-12-12-12-12-12----------|
E|-10-10-10-10-10-10----------|


e|-----10-10------10---10--10-8--10--10-10-9--7--7-7--10-10-10--10---|
B|-----10-10------10---12--10-8--10--10-10-9--7--7-7--12-12-10--10---|
G|-----11-11------11---12--11-9--11--11-11-10-7--7-7--12-12-11--11---|
D|-----12-12------12---12--12-10-12--12-12-11-9--9-9--12-12-12--12---|
A|-----12-12------12---10--12-10-12--12-12-11-9--9-9--10-10-12--12---|
E|--10-10-10--10--10-------10-8--10--10-10-9--7--7-7--------10--10---|
    You light a torch...

e|-10-10-10-10-10-10----------|
B|-10-10-10-10-10-10----------|
G|-11-11-11-11-11-11----------|
D|-12-12-12-12-12-12----------|
A|-12-12-12-12-12-12----------|
E|-10-10-10-10-10-10----------|


e|--2-2-3-3-3---10----------------------------------------------------|
B|--4-4-3-3-3---10----------------------------------------------------|
G|--4-4-4-4-4---11----------------------------------------------------|
D|--4-4-5-5-5---12----------------------------------------------------|
A|--2-2-5-5-5---12----------------------------------------------------|
E|------3-3-3---10----------------------------------------------------|
  Yeh, you...

Verse


e|-----10-10------10---10--10-8--10--10-10-9--7--7-7--10-10-10--10---|
B|-----10-10------10---12--10-8--10--10-10-9--7--7-7--12-12-10--10---|
G|-----11-11------11---12--11-9--11--11-11-10-7--7-7--12-12-11--11---|
D|-----12-12------12---12--12-10-12--12-12-11-9--9-9--12-12-12--12---|
A|-----12-12------12---10--12-10-12--12-12-11-9--9-9--10-10-12--12---|
E|--10-10-10--10--10-------10-8--10--10-10-9--7--7-7--------10--10---|
    You have always...                       But to me...

e|-10-10-10-10-10-10----------|
B|-10-10-10-10-10-10----------|
G|-11-11-11-11-11-11----------|
D|-12-12-12-12-12-12----------|
A|-12-12-12-12-12-12----------|
E|-10-10-10-10-10-10----------|


e|-----10-10------10---10--10-8--10--10-10-9--7--7-7--10-10-10--10---|
B|-----10-10------10---12--10-8--10--10-10-9--7--7-7--12-12-10--10---|
G|-----11-11------11---12--11-9--11--11-11-10-7--7-7--12-12-11--11---|
D|-----12-12------12---12--12-10-12--12-12-11-9--9-9--12-12-12--12---|
A|-----12-12------12---10--12-10-12--12-12-11-9--9-9--10-10-12--12---|
E|--10-10-10--10--10-------10-8--10--10-10-9--7--7-7--------10--10---|
    you arrive...                             yeah you...

e|-10-10-10-10-10-10----------|
B|-10-10-10-10-10-10----------|
G|-11-11-11-11-11-11----------|
D|-12-12-12-12-12-12----------|
A|-12-12-12-12-12-12----------|
E|-10-10-10-10-10-10----------|


e|--2-2-3-3-3---10----------------------------------------------------|
B|--4-4-3-3-3---10----------------------------------------------------|
G|--4-4-4-4-4---11----------------------------------------------------|
D|--4-4-5-5-5---12----------------------------------------------------|
A|--2-2-5-5-5---12----------------------------------------------------|
E|------3-3-3---10----------------------------------------------------|
  Yeh, you light..

theres a little thing he plays over the top of this im not sure wat it is but ill make an attempt

e|------------------------------------------------------------|
B|------------------------------------------------------------|
G|-14~-14/16-16\12-12\10-10-10-10/15--------------------------|
D|------------------------------------------------------------|
A|------------------------------------------------------------|
E|------------------------------------------------------------|

its pretty rough like

he plays it a few times probably i think

Chorus

Work out the strumming and rythm urself

e|--5--2--2--3--2--10--5---------------------------------------------|
B|--7--3--2--3--2--12--5---------------------------------------------|
G|--7--4--2--5--2--12--6---------------------------------------------|
D|--7--4--4--5--4--12--7---------------------------------------------|
A|--5--2--4--5--4--10--7---------------------------------------------|
E|--------2--3--2------5---------------------------------------------|

Verse

Chorus

verse

this verse is different its hard to hear so i sort of guessed

yet again work out the rythm

e|--2--3--7--5-----------------------------------------------------|
B|--3--3--7--5-----------------------------------------------------|
G|--4--4--7--6-----------------------------------------------------|
D|--4--5--9--7-----------------------------------------------------|
A|--2--5--9--7-----------------------------------------------------|
E|-----3--7--5-----------------------------------------------------|

coudn't get the solo
but it should be here then the verse finishes

e|--2--3--7--5-----------------------------------------------------|
B|--3--3--7--5-----------------------------------------------------|
G|--4--4--7--6-----------------------------------------------------|
D|--4--5--9--7-----------------------------------------------------|
A|--2--5--9--7-----------------------------------------------------|
E|-----3--7--5-----------------------------------------------------|

chorus

couldn't get solo sorry
actually i couldn't be arsed

Lyrics

Intro
Roman candles that burn in the night
Yeah you are a shining light
You lit a torch in the infinite
Yeah you are a shining light
Yeah you light up my life

Verse

You have always been a thorn in their side
But to me you're a shining light
You arrive and the night is alive
Yeah you are a shining light
Yeah you light up my life

chorus

We made a connection
A full on chemical reaction
But by dark divine intervention
Yeah you are a shining light
A constellation once seen
Over Royal David's city
An epiphany, you burn so pretty
Yeah you are a shining light

Verse

You are a force you are a constant source
Yeah you are a shining light
Incandescent in the darkest night
Yeah you are a shining light
My mortal blood I would sacrifice
For you are my shining light
Sovereign bride of the infinite
Yeah you are a shining light
Yeah you light up my life

Chorus

We made a connection
A full on chemical reaction
But by dark divine intervention
Yeah you are a shining light
A constellation once seen
Over Royal David's city
An epiphany, you burn so pretty
Yeah you are a shining light

Verse

These are the days you often say
There's nothing that we cannot do
Beneath a canopy of stars
I'd shed blood for you
The north star in the firmament
You shine the most bright
I've seen you draped in an electric veil
Shrouded in celestial light

Chorus

We made a connection
A full on chemical reaction
But by dark divine intervention
Yeah you are a shining light
A constellation once seen
Over Royal David's city
An epiphany, you burn so pretty
Yeah you are a shining light
Yeah you light up my life
Yeah you are a shining light
Yeah you light up my life



| /  slide up
| \  slide down
| h  hammer-on
| p  pull-off
| ~  vibrato
| +  harmonic
| x  Mute note
===============================================================================

            
            
Suggest correction
Creating personal tab
Creating personal tab
You can edit any tab online and save it as your Personal.

You can edit, replace or remove any tab part or add personal notes – all changes will be seen only by you.

Personal tabs can be accessed anytime from any device, even offline.
Learn more »
Give kudos to tab author, rate the tab!
1 2 3 4 5
comments
print report bad tab
guest
You may want to rate the tab now too:
select rating
Wanna post a correction for this tab? Suggest correction