Oops, an error
Loading. Please wait.

Shining Light tab

version 4
version 4

Whole song

Interactive

by Ash
16,216 views 21 this week
no commentswrite comment
1 2 3 4 5
x 4
add to favorites
×
Save as Personal and add changes to this tab that will be seen only by you. Learn more ›
×
You can save this tab as Personal to edit and correct it or add notes. All changes will be seen only by you. Learn more »
launch autoscroll
font size
0
reset
how to read this tab
guitar tuner
edit
Autoscroll
slow
fast
+/-
esc
set tempo
stop
Author
Difficulty
Guitar 1



      Q     E.   S  E   E   E   S  S     E   E   E   E   E   E   E  E   
E||----------------------------------|---------------------------------|
B||----------------------------------|---------------------------------|
G||--------11---11--L------11--------|--12--14--12----------11---------|
D||--------12---12--L------12--------|--12--12--12----------12--11-----|
A||--------12---12--L------12--10-10-|--10--10--10--12---L--12--11-----|
E||--10----------------10------10-10-|--------------10---L-------9--0--|


  Q    E  S S  E   E  E   E      E   E   E   S  S  S  S  E   E   S  S  
-------7---------------------|----------------------------------------|
-------7----------12---------|----------------------------------------|
-------7----------12---------|----------11-----11--L-11-----11--------|
-------9----x-----12-----12--|---L------12-----12--L-12-----12--12-12-|
--9----9------10------0--12--|---L------12-----12--L-12-----12--12-12-|
--7-------0--------------10--|---L--10------10----------10------10-10-|


   Q     E.   S  E   E   E   S  S     E   E   E   E   E   E   E  E   
----------------------------------|---------------------------------|
----------------------------------|---------------------------------|
--------11---11--L------11--------|--12--14--12----------11---------|
--------12---12--L------12--------|--12--12--12----------12--11-----|
--------12---12--L------12--10-10-|--10--10--10--12---L--12--11-----|
--10----------------10------10-10-|--------------10---L-------9--0--|


  Q    E  S S  E   E  E   E      E   E   E   S  S  S  S  E   E   S  S  
-------7---------------------|----------------------------------------|
-------7----------12---------|----------------------------------------|
-------7----------12---------|----------11-----11--L-11-----11--------|
-------9----x-----12-----12--|---L------12-----12--L-12-----12--12-12-|
--9----9------10------0--12--|---L------12-----12--L-12-----12--12-12-|
--7-------0--------------10--|---L--10------10----------10------10-10-|


   Q     E.   S  E   E   E   S  S     E   E   E   E   E   E   E  E   
----------------------------------|---------------------------------|
----------------------------------|---------------------------------|
--------11---11--L------11--------|--12--14--12----------11---------|
--------12---12--L------12--------|--12--12--12----------12--11-----|
--------12---12--L------12--10-10-|--10--10--10--12---L--12--11-----|
--10----------------10------10-10-|--------------10---L-------9--0--|


  Q    E  S S  E   E  E   E      E   E   E   S  S  S  S  E   E   S  S  
-------7---------------------|----------------------------------------|
-------7----------12---------|----------------------------------------|
-------7----------12---------|----------11-----11--L-11-----11--------|
-------9----x-----12-----12--|---L------12-----12--L-12-----12--12-12-|
--9----9------10------0--12--|---L------12-----12--L-12-----12--12-12-|
--7-------0--------------10--|---L--10------10----------10------10-10-|


  Q    E  S S  E   E  E   E      E   E   E   S  S  S  S  E   E   S  S  
-------7---------------------|----------------------------------------|
-------7----------12---------|----------------------------------------|
-------7----------12---------|----------11-----11--L-11-----11--------|
-------9----x-----12-----12--|---L------12-----12--L-12-----12--12-12-|
--9----9------10------0--12--|---L------12-----12--L-12-----12--12-12-|
--7-------0--------------10--|---L--10------10----------10------10-10-|


   Q     E.   S  E   E   E   S  S     E   E   E   E   E   E   E  E   
----------------------------------|---------------------------------|
----------------------------------|---------------------------------|
--------11---11--L------11--------|--12--14--12----------11---------|
--------12---12--L------12--------|--12--12--12----------12--11-----|
--------12---12--L------12--10-10-|--10--10--10--12---L--12--11-----|
--10----------------10------10-10-|--------------10---L-------9--0--|


  Q    E  S S  E   E  E   E      E   E   E   S  S  S  S  E   E   S  S  
-------7---------------------|----------------------------------------|
-------7----------12---------|----------------------------------------|
-------7----------12---------|----------11-----11--L-11-----11--------|
-------9----x-----12-----12--|---L------12-----12--L-12-----12--12-12-|
--9----9------10------0--12--|---L------12-----12--L-12-----12--12-12-|
--7-------0--------------10--|---L--10------10----------10------10-10-|


   Q     E.   S  E   E   E   S  S     E   E   E   E   E   E   E  E   
----------------------------------|---------------------------------|
----------------------------------|---------------------------------|
--------11---11--L------11--------|--12--14--12----------11---------|
--------12---12--L------12--------|--12--12--12----------12--11-----|
--------12---12--L------12--10-10-|--10--10--10--12---L--12--11-----|
--10----------------10------10-10-|--------------10---L-------9--0--|


  Q    E  S S  E   E  E   E      E   E   E   S  S  S  S  E   E   S  S  
-------7---------------------|----------------------------------------|
-------7----------12---------|----------------------------------------|
-------7----------12---------|----------11-----11--L-11-----11--------|
-------9----x-----12-----12--|---L------12-----12--L-12-----12--12-12-|
--9----9------10------0--12--|---L------12-----12--L-12-----12--12-12-|
--7-------0--------------10--|---L--10------10----------10------10-10-|


  Q    E  S S  E   E  E   E      E   E   E   S  S  S  S  E   E   S  S  
-------7---------------------|----------------------------------------|
-------7----------12---------|----------------------------------------|
-------7----------12---------|----------11-----11--L-11-----11--------|
-------9----x-----12-----12--|---L------12-----12--L-12-----12--12-12-|
--9----9------10------0--12--|---L------12-----12--L-12-----12--12-12-|
--7-------0--------------10--|---L--10------10----------10------10-10-|


  Q    E  S S S S E  E  S S    Q    E  S S S S E  E  S S  
----------------------------|--2----2--2-2-L-2-2--2------|
--7----7--7-7-L-7-7--7--0-0-|--3----3--3-3-L-3-3--3--0-0-|
--7----7--7-7-L-7-7--7--0-0-|--4----4--4-4-L-4-4--4--0-0-|
--7----7--7-7-L-7-7--7--0-0-|--4----4--4-4-L-4-4--4--0-0-|
--5----5--5-5-L-5-5--5------|--2----2--2-2-L-2-2--2------|
----------------------------|----------------------------|


  Q    E  S S S S E  E  S S    Q    E  S S S S E  E  S S  
--2----2--2-2-L-2-2--2------|--3----3--3-3-L-2-2--2--2-2-|
--2----2--2-2-L-2-2--2--0-0-|--3----3--3-3-L-3-3--3--3-3-|
--2----2--2-2-L-2-2--2--0-0-|--4----4--4-4-L-4-4--4--4-4-|
--4----4--4-4-L-4-4--4--0-0-|--5----5--5-5-L-5-5--5--5-5-|
--4----4--4-4-L-4-4--4------|--5----5--5-5-L-5-5--5--5-5-|
--2----2--2-2-L-2-2--2------|--3----3--2-3-L-3-3--3--3-3-|


  Q    E  S S S S E  E  S S    Q    E  S S S S E  E  S S  
--2----2--2-2-L-2-2--2------|--3----3--3-3-L-2-2--2--2-2-|
--2----2--2-2-L-2-2--2--0-0-|--3----3--3-3-L-3-3--3--3-3-|
--2----2--2-2-L-2-2--2--0-0-|--4----4--4-4-L-4-4--4--4-4-|
--4----4--4-4-L-4-4--4--0-0-|--5----5--5-5-L-5-5--5--5-5-|
--4----4--4-4-L-4-4--4------|--5----5--5-5-L-5-5--5--5-5-|
--2----2--2-2-L-2-2--2------|--3----3--2-3-L-3-3--3--3-3-|


  Q    E  S S S S E  E  S S    Q    E  S S S S E  E  S S  
----------------------------|----------------------------|
--3----3--3-3-L-3-3--3--3-3-|--2----2--2-2-L-2-2--2--0-0-|
--2----2--2-2-L-2-2--2--2-2-|--2----2--2-2-L-2-2--2--0-0-|
--2----2--2-2-L-2-2--2--2-2-|--2----2--2-2-L-2-2--2--0-0-|
--0----0--0-0-L-0-0--0--0-0-|--0----0--0-0-L-0-0--0------|
----------------------------|----------------------------|


  Q    E  S S S S E  E  S S    Q    E  S S S S E  E  S S  
----------------------------|--2----2--2-2-L-2-2--2------|
--7----7--7-7-L-7-7--7--0-0-|--3----3--3-3-L-3-3--3--0-0-|
--7----7--7-7-L-7-7--7--0-0-|--4----4--4-4-L-4-4--4--0-0-|
--7----7--7-7-L-7-7--7--0-0-|--4----4--4-4-L-4-4--4--0-0-|
--5----5--5-5-L-5-5--5------|--2----2--2-2-L-2-2--2------|
----------------------------|----------------------------|


  Q    E  S S S S E  E  S S    Q    E  S S S S E  E  S S  
--2----2--2-2-L-2-2--2------|--3----3--3-3-L-2-2--2--2-2-|
--2----2--2-2-L-2-2--2--0-0-|--3----3--3-3-L-3-3--3--3-3-|
--2----2--2-2-L-2-2--2--0-0-|--4----4--4-4-L-4-4--4--4-4-|
--4----4--4-4-L-4-4--4--0-0-|--5----5--5-5-L-5-5--5--5-5-|
--4----4--4-4-L-4-4--4------|--5----5--5-5-L-5-5--5--5-5-|
--2----2--2-2-L-2-2--2------|--3----3--2-3-L-3-3--3--3-3-|


  Q    E  S S S S E  E  S S    Q    E  S S S S E  E  S S  
--2----2--2-2-L-2-2--2------|--3----3--3-3-L-2-2--2--2-2-|
--2----2--2-2-L-2-2--2--0-0-|--3----3--3-3-L-3-3--3--3-3-|
--2----2--2-2-L-2-2--2--0-0-|--4----4--4-4-L-4-4--4--4-4-|
--4----4--4-4-L-4-4--4--0-0-|--5----5--5-5-L-5-5--5--5-5-|
--4----4--4-4-L-4-4--4------|--5----5--5-5-L-5-5--5--5-5-|
--2----2--2-2-L-2-2--2------|--3----3--2-3-L-3-3--3--3-3-|


  Q    E  S S S S E  E  S S    Q    E  S S S S E  E  S S  
----------------------------|----------------------------|
--3----3--3-3-L-3-3--3--3-3-|--2----2--2-2-L-2-2--2--0-0-|
--2----2--2-2-L-2-2--2--2-2-|--2----2--2-2-L-2-2--2--0-0-|
--2----2--2-2-L-2-2--2--2-2-|--2----2--2-2-L-2-2--2--0-0-|
--0----0--0-0-L-0-0--0--0-0-|--0----0--0-0-L-0-0--0------|
----------------------------|----------------------------|


   Q     E.   S  E   E   E   S  S     E   E   E   E   E   E   E  E   
----------------------------------|---------------------------------|
----------------------------------|---------------------------------|
--------11---11--L------11--------|--12--14--12----------11---------|
--------12---12--L------12--------|--12--12--12----------12--11-----|
--------12---12--L------12--10-10-|--10--10--10--12---L--12--11-----|
--10----------------10------10-10-|--------------10---L-------9--0--|


  Q    E  S S  E   E  E   E      E   E   E   S  S  S  S  E   E   S  S  
-------7---------------------|----------------------------------------|
-------7----------12---------|----------------------------------------|
-------7----------12---------|----------11-----11--L-11-----11--------|
-------9----x-----12-----12--|---L------12-----12--L-12-----12--12-12-|
--9----9------10------0--12--|---L------12-----12--L-12-----12--12-12-|
--7-------0--------------10--|---L--10------10----------10------10-10-|


   Q     E.   S  E   E   E   S  S     E   E   E   E   E   E   E  E   
----------------------------------|---------------------------------|
----------------------------------|---------------------------------|
--------11---11--L------11--------|--12--14--12----------11---------|
--------12---12--L------12--------|--12--12--12----------12--11-----|
--------12---12--L------12--10-10-|--10--10--10--12---L--12--11-----|
--10----------------10------10-10-|--------------10---L-------9--0--|


  Q    E  S S  E   E  E   E      E   E   E   S  S  S  S  E   E   S  S  
-------7---------------------|----------------------------------------|
-------7----------12---------|----------------------------------------|
-------7----------12---------|----------11-----11--L-11-----11--------|
-------9----x-----12-----12--|---L------12-----12--L-12-----12--12-12-|
--9----9------10------0--12--|---L------12-----12--L-12-----12--12-12-|
--7-------0--------------10--|---L--10------10----------10------10-10-|


  Q    E  S S  E   E  E   E      E   E   E   S  S  S  S  E   E   S  S  
-------7---------------------|----------------------------------------|
-------7----------12---------|----------------------------------------|
-------7----------12---------|----------11-----11--L-11-----11--------|
-------9----x-----12-----12--|---L------12-----12--L-12-----12--12-12-|
--9----9------10------0--12--|---L------12-----12--L-12-----12--12-12-|
--7-------0--------------10--|---L--10------10----------10------10-10-|


  D                            Bm                         
  Q    E  S S S S E  E  S S    Q    E  S S S S E  E  S S  
----------------------------|--2----2--2-2-L-2-2--2------|
--7----7--7-7-L-7-7--7--0-0-|--3----3--3-3-L-3-3--3--0-0-|
--7----7--7-7-L-7-7--7--0-0-|--4----4--4-4-L-4-4--4--0-0-|
--7----7--7-7-L-7-7--7--0-0-|--4----4--4-4-L-4-4--4--0-0-|
--5----5--5-5-L-5-5--5------|--2----2--2-2-L-2-2--2------|
----------------------------|----------------------------|


  F#m                          G                          
  Q    E  S S S S E  E  S S    Q    E  S S S S E  E  S S  
--2----2--2-2-L-2-2--2------|--3----3--3-3-L-2-2--2--2-2-|
--2----2--2-2-L-2-2--2--0-0-|--3----3--3-3-L-3-3--3--3-3-|
--2----2--2-2-L-2-2--2--0-0-|--4----4--4-4-L-4-4--4--4-4-|
--4----4--4-4-L---4--4--0-0-|--5----5--5-5-L-5-5--5--5-5-|
--4----4--4-4-L-4-4--4------|--5----5--5-5-L-5-5--5--5-5-|
--2----2--2-2-L-2-2--2------|--3----3--2-3-L-3-3--3--3-3-|


  F#m                          G                          
  Q    E  S S S S E  E  S S    Q    E  S S S S E  E  S S  
--2----2--2-2-L-2-2--2------|--3----3--3-3-L-2-2--2--2-2-|
--2----2--2-2-L-2-2--2--0-0-|--3----3--3-3-L-3-3--3--3-3-|
--2----2--2-2-L-2-2--2--0-0-|--4----4--4-4-L-4-4--4--4-4-|
--4----4--4-4-L-4-4--4--0-0-|--5----5--5-5-L-5-5--5--5-5-|
--4----4--4-4-L-4-4--4------|--5----5--5-5-L-5-5--5--5-5-|
--2----2--2-2-L-2-2--2------|--3----3--2-3-L-3-3--3--3-3-|


  Asus4                         A                          
  Q     E  S S S S E  E  S S    Q    E  S S S S E  E  S S  
-----------------------------|----------------------------|
--3-----3--3-3-L-3-3--3--3-3-|--2----2--2-2-L-2-2--2--0-0-|
--2-----2--2-2-L-2-2--2--2-2-|--2----2--2-2-L-2-2--2--0-0-|
--2-----2--2-2-L-2-2--2--2-2-|--2----2--2-2-L-2-2--2--0-0-|
--0-----0--0-0-L-0-0--0--0-0-|--0----0--0-0-L-0-0--0------|
-----------------------------|----------------------------|


  Q    E  S S S S E  E  S S    Q    E  S S S S E  E  S S  
----------------------------|--2----2--2-2-L-2-2--2------|
--7----7--7-7-L-7-7--7--0-0-|--3----3--3-3-L-3-3--3--0-0-|
--7----7--7-7-L-7-7--7--0-0-|--4----4--4-4-L-4-4--4--0-0-|
--7----7--7-7-L-7-7--7--0-0-|--4----4--4-4-L-4-4--4--0-0-|
--5----5--5-5-L-5-5--5------|--2----2--2-2-L-2-2--2------|
----------------------------|----------------------------|


  Q    E  S S S S E  E  S S    Q    E  S S S S E  E  S S  
--2----2--2-2-L-2-2--2------|--3----3--3-3-L-2-2--2--2-2-|
--2----2--2-2-L-2-2--2--0-0-|--3----3--3-3-L-3-3--3--3-3-|
--2----2--2-2-L-2-2--2--0-0-|--4----4--4-4-L-4-4--4--4-4-|
--4----4--4-4-L-4-4--4--0-0-|--5----5--5-5-L-5-5--5--5-5-|
--4----4--4-4-L-4-4--4------|--5----5--5-5-L-5-5--5--5-5-|
--2----2--2-2-L-2-2--2------|--3----3--2-3-L-3-3--3--3-3-|


  Q    E  S S S S E  E  S S    Q    E  S S S S E  E  S S  
--2----2--2-2-L-2-2--2------|--3----3--3-3-L-2-2--2--2-2-|
--2----2--2-2-L-2-2--2--0-0-|--3----3--3-3-L-3-3--3--3-3-|
--2----2--2-2-L-2-2--2--0-0-|--4----4--4-4-L-4-4--4--4-4-|
--4----4--4-4-L-4-4--4--0-0-|--5----5--5-5-L-5-5--5--5-5-|
--4----4--4-4-L-4-4--4------|--5----5--5-5-L-5-5--5--5-5-|
--2----2--2-2-L-2-2--2------|--3----3--2-3-L-3-3--3--3-3-|


  Q    E  S S S S E  E  S S    Q    E  S S S S E  E  S S  
----------------------------|----------------------------|
--3----3--3-3-L-3-3--3--3-3-|--2----2--2-2-L-2-2--2--0-0-|
--2----2--2-2-L-2-2--2--2-2-|--2----2--2-2-L-2-2--2--0-0-|
--2----2--2-2-L-2-2--2--2-2-|--2----2--2-2-L-2-2--2--0-0-|
--0----0--0-0-L-0-0--0--0-0-|--0----0--0-0-L-0-0--0------|
----------------------------|----------------------------|


  Bm                           Bm(maj7)                       
  Q    E  S S S S E  E  S S    Q        E  S S S S E  E  S S  
--7----7--7-7-7-7-7--7--7-7-|--7--------7--7-7-7-7-7--7--7-7-|
--7----7--7-7-7-7-7--7--7-7-|--7--------7--7-7-7-7-7--7--7-7-|
--7----7--7-7-7-7-7--7--7-7-|--7--------7--7-7-7-7-7--7--7-7-|
--8----8--8-8-8-8-8--8--8-8-|--8--------8--8-8-8-8-8--8--8-8-|
--8----8--8-8-8-8-8--8--8-8-|--9--------9--9-9-9-9-9--9--9-9-|
--7----7--7-7-7-7-7--7--7-7-|--7--------7--7-7-7-7-7--7--7-7-|


  Bm7                          Bm6                        
  Q    E  S S S S E  E  S S    Q    E  S S S S E  E  S S  
--7----7--7-7-7-7-7--7--7-7-|----------------------------|
--7----7--7-7-7-7-7--7--7-7-|--7----7--7-7-7-7-7--7--7-7-|
--7----7--7-7-7-7-7--7--7-7-|--7----7--7-7-7-7-7--7--7-7-|
--7----7--7-7-7-7-7--7--7-7-|--6----6--6-6-6-6-6--6--6-6-|
--9----9--9-9-9-9-9--9--9-9-|--x----x--x-x-x-x-x--x--x-x-|
--7----7--7-7-7-7-7--7--7-7-|--7----7--7-7-7-7-7--7--7-7-|


  Em                           A                          
  Q    E  S S S S E  E  S S    Q    E  S S S S E  E  S S  
--0----0--0-0-0-0-0--0--0-0-|----------------------------|
--0----0--0-0-0-0-0--0--0-0-|--2----2--2-2-2-2-2--2--2-2-|
--0----0--0-0-0-0-0--0--0-0-|--2----2--2-2-2-2-2--2--2-2-|
--2----2--2-2-2-2-2--2--2-2-|--2----2--2-2-2-2-2--2--2-2-|
--2----2--2-2-2-2-2--2--2-2-|--0----0--0-0-0-0-0--0--0-0-|
--0----0--0-0-0-0-0--0--0-0-|----------------------------|


  Em                           A                          
  Q    E  S S S S E  E  S S    Q    E  S S S S E  E  S S  
--0----0--0-0-0-0-0--0--0-0-|----------------------------|
--0----0--0-0-0-0-0--0--0-0-|--2----2--2-2-2-2-2--2--2-2-|
--0----0--0-0-0-0-0--0--0-0-|--2----2--2-2-2-2-2--2--2-2-|
--2----2--2-2-2-2-2--2--2-2-|--2----2--2-2-2-2-2--2--2-2-|
--2----2--2-2-2-2-2--2--2-2-|--0----0--0-0-0-0-0--0--0-0-|
--0----0--0-0-0-0-0--0--0-0-|----------------------------|


  D                            Bm                         
  Q    E  S S S S E  E  S S    Q    E  S S S S E  E  S S  
----------------------------|--2----2--2-2-L-2-2--2------|
--7----7--7-7-L-7-7--7--0-0-|--3----3--3-3-L-3-3--3--0-0-|
--7----7--7-7-L-7-7--7--0-0-|--4----4--4-4-L-4-4--4--0-0-|
--7----7--7-7-L-7-7--7--0-0-|--4----4--4-4-L-4-4--4--0-0-|
--5----5--5-5-L-5-5--5------|--2----2--2-2-L-2-2--2------|
----------------------------|----------------------------|


  F#m                          G                          
  Q    E  S S S S E  E  S S    Q    E  S S S S E  E  S S  
--2----2--2-2-L-2-2--2------|--3----3--3-3-L-2-2--2--2-2-|
--2----2--2-2-L-2-2--2--0-0-|--3----3--3-3-L-3-3--3--3-3-|
--2----2--2-2-L-2-2--2--0-0-|--4----4--4-4-L-4-4--4--4-4-|
--4----4--4-4-L---4--4--0-0-|--5----5--5-5-L-5-5--5--5-5-|
--4----4--4-4-L-4-4--4------|--5----5--5-5-L-5-5--5--5-5-|
--2----2--2-2-L-2-2--2------|--3----3--2-3-L-3-3--3--3-3-|


  F#m                          G                          
  Q    E  S S S S E  E  S S    Q    E  S S S S E  E  S S  
--2----2--2-2-L-2-2--2------|--3----3--3-3-L-2-2--2--2-2-|
--2----2--2-2-L-2-2--2--0-0-|--3----3--3-3-L-3-3--3--3-3-|
--2----2--2-2-L-2-2--2--0-0-|--4----4--4-4-L-4-4--4--4-4-|
--4----4--4-4-L---4--4--0-0-|--5----5--5-5-L-5-5--5--5-5-|
--4----4--4-4-L-4-4--4------|--5----5--5-5-L-5-5--5--5-5-|
--2----2--2-2-L-2-2--2------|--3----3--2-3-L-3-3--3--3-3-|


  Asus4                         A                          
  Q     E  S S S S E  E  S S    Q    E  S S S S E  E  S S  
-----------------------------|----------------------------|
--3-----3--3-3-L-3-3--3--3-3-|--2----2--2-2-L-2-2--2--0-0-|
--2-----2--2-2-L-2-2--2--2-2-|--2----2--2-2-L-2-2--2--0-0-|
--2-----2--2-2-L-2-2--2--2-2-|--2----2--2-2-L-2-2--2--0-0-|
--0-----0--0-0-L-0-0--0--0-0-|--0----0--0-0-L-0-0--0------|
-----------------------------|----------------------------|


  D                            Bm                         
  Q    E  S S S S E  E  S S    Q    E  S S S S E  E  S S  
----------------------------|--2----2--2-2-L-2-2--2------|
--7----7--7-7-L-7-7--7--0-0-|--3----3--3-3-L-3-3--3--0-0-|
--7----7--7-7-L-7-7--7--0-0-|--4----4--4-4-L-4-4--4--0-0-|
--7----7--7-7-L-7-7--7--0-0-|--4----4--4-4-L-4-4--4--0-0-|
--5----5--5-5-L-5-5--5------|--2----2--2-2-L-2-2--2------|
----------------------------|----------------------------|


  F#m                          G                          
  Q    E  S S S S E  E  S S    Q    E  S S S S E  E  S S  
--2----2--2-2-L-2-2--2------|--3----3--3-3-L-2-2--2--2-2-|
--2----2--2-2-L-2-2--2--0-0-|--3----3--3-3-L-3-3--3--3-3-|
--2----2--2-2-L-2-2--2--0-0-|--4----4--4-4-L-4-4--4--4-4-|
--4----4--4-4-L---4--4--0-0-|--5----5--5-5-L-5-5--5--5-5-|
--4----4--4-4-L-4-4--4------|--5----5--5-5-L-5-5--5--5-5-|
--2----2--2-2-L-2-2--2------|--3----3--2-3-L-3-3--3--3-3-|


  F#m                          G                          
  Q    E  S S S S E  E  S S    Q    E  S S S S E  E  S S  
--2----2--2-2-L-2-2--2------|--3----3--3-3-L-2-2--2--2-2-|
--2----2--2-2-L-2-2--2--0-0-|--3----3--3-3-L-3-3--3--3-3-|
--2----2--2-2-L-2-2--2--0-0-|--4----4--4-4-L-4-4--4--4-4-|
--4----4--4-4-L---4--4--0-0-|--5----5--5-5-L-5-5--5--5-5-|
--4----4--4-4-L-4-4--4------|--5----5--5-5-L-5-5--5--5-5-|
--2----2--2-2-L-2-2--2------|--3----3--2-3-L-3-3--3--3-3-|


  Asus4                         A                          
  Q     E  S S S S E  E  S S    Q    E  S S S S E  E  S S  
-----------------------------|----------------------------|
--3-----3--3-3-L-3-3--3--3-3-|--2----2--2-2-L-2-2--2--0-0-|
--2-----2--2-2-L-2-2--2--2-2-|--2----2--2-2-L-2-2--2--0-0-|
--2-----2--2-2-L-2-2--2--2-2-|--2----2--2-2-L-2-2--2--0-0-|
--0-----0--0-0-L-0-0--0--0-0-|--0----0--0-0-L-0-0--0------|
-----------------------------|----------------------------|


  Asus4                         A                          
  Q     E  S S S S E  E  S S    Q    E  S S S S E  E  S S  
-----------------------------|----------------------------|
--3-----3--3-3-L-3-3--3--3-3-|--2----2--2-2-L-2-2--2--0-0-|
--2-----2--2-2-L-2-2--2--2-2-|--2----2--2-2-L-2-2--2--0-0-|
--2-----2--2-2-L-2-2--2--2-2-|--2----2--2-2-L-2-2--2--0-0-|
--0-----0--0-0-L-0-0--0--0-0-|--0----0--0-0-L-0-0--0------|
-----------------------------|----------------------------|


  Eb                           Cm                         
  Q    E  S S S S E  E  S S    Q    E  S S S S E  E  S S  
----------------------------|--3----3--3-3---3-3--3------|
--8----8--8-8-L-8-8--8--0-0-|--4----4--4-4-L-4-4--4--0-0-|
--8----8--8-8-L-8-8--8--0-0-|--5----5--5-5-L-5-5--5--0-0-|
--8----8--8-8-L-8-8--8--0-0-|--5----5--5-5-L-5-5--5--0-0-|
--6----6--6-6-L-6-6--6------|--3----3--3-3-L-3-3--3------|
----------------------------|----------------------------|


            Gm                            Ab                
  Q    E  S S  S S E  E  S S    Q    E  S S  S S E  E  S S  
--3----3--3-3----3-3--3------|--4----4--4-4----4-4--4------|
--3----3--3-3--L-3-3--3--0-0-|--4----4--4-4--L-4-4--4--0-0-|
--3----3--3-3--L-3-3--3--0-0-|--5----5--5-5--L-5-5--5--0-0-|
--5----5--5-5--L-5-5--5--0-0-|--6----6--6-6--L-6-6--6--0-0-|
--5----5--5-5--L-5-5--5------|--6----6--6-6--L-6-6--6------|
--3----3--3-3----3-3--3------|--4----4--4-4----4-4--4------|


            Gm                            Ab                
  Q    E  S S  S S E  E  S S    Q    E  S S  S S E  E  S S  
--3----3--3-3----3-3--3------|--4----4--4-4----4-4--4------|
--3----3--3-3--L-3-3--3--0-0-|--4----4--4-4--L-4-4--4--0-0-|
--3----3--3-3--L-3-3--3--0-0-|--5----5--5-5--L-5-5--5--0-0-|
--5----5--5-5--L-5-5--5--0-0-|--6----6--6-6--L-6-6--6--0-0-|
--5----5--5-5--L-5-5--5------|--6----6--6-6--L-6-6--6------|
--3----3--3-3----3-3--3------|--4----4--4-4----4-4--4------|


            Bbsus4                            Bb                
  Q    E  S S      S S E  E  S S    Q    E  S S  S S E  E  S S  
---------------------------------|-----------------------------|
--4----4--4-4------L-4-4--4--4-4-|--3----3--3-3--L-3-3--3--3-3-|
--3----3--3-3------L-3-3--3--3-3-|--3----3--3-3--L-3-3--3--3-3-|
--3----3--3-3------L-3-3--3--3-3-|--3----3--3-3--L-3-3--3--3-3-|
--1----1--1-1------L-1-1--1--1-1-|--1----1--1-1--L-1-1--1--1-1-|
---------------------------------|-----------------------------|


  Eb                           Cm                         
  Q    E  S S S S E  E  S S    Q    E  S S S S E  E  S S  
----------------------------|--3----3--3-3---3-3--3------|
--8----8--8-8-L-8-8--8--0-0-|--4----4--4-4-L-4-4--4--0-0-|
--8----8--8-8-L-8-8--8--0-0-|--5----5--5-5-L-5-5--5--0-0-|
--8----8--8-8-L-8-8--8--0-0-|--5----5--5-5-L-5-5--5--0-0-|
--6----6--6-6-L-6-6--6------|--3----3--3-3-L-3-3--3------|
----------------------------|----------------------------|


            Gm                            Ab                
  Q    E  S S  S S E  E  S S    Q    E  S S  S S E  E  S S  
--3----3--3-3----3-3--3------|--4----4--4-4----4-4--4------|
--3----3--3-3--L-3-3--3--0-0-|--4----4--4-4--L-4-4--4--0-0-|
--3----3--3-3--L-3-3--3--0-0-|--5----5--5-5--L-5-5--5--0-0-|
--5----5--5-5--L-5-5--5--0-0-|--6----6--6-6--L-6-6--6--0-0-|
--5----5--5-5--L-5-5--5------|--6----6--6-6--L-6-6--6------|
--3----3--3-3----3-3--3------|--4----4--4-4----4-4--4------|


            Gm                            Ab                
  Q    E  S S  S S E  E  S S    Q    E  S S  S S E  E  S S  
--3----3--3-3----3-3--3------|--4----4--4-4----4-4--4------|
--3----3--3-3--L-3-3--3--0-0-|--4----4--4-4--L-4-4--4--0-0-|
--3----3--3-3--L-3-3--3--0-0-|--5----5--5-5--L-5-5--5--0-0-|
--5----5--5-5--L-5-5--5--0-0-|--6----6--6-6--L-6-6--6--0-0-|
--5----5--5-5--L-5-5--5------|--6----6--6-6--L-6-6--6------|
--3----3--3-3----3-3--3------|--4----4--4-4----4-4--4------|


            Bbsus4                            Bb                
  Q    E  S S      S S E  E  S S    Q    E  S S  S S E  E  S S  
---------------------------------|-----------------------------|
--4----4--4-4------L-4-4--4--4-4-|--3----3--3-3--L-3-3--3--3-3-|
--3----3--3-3------L-3-3--3--3-3-|--3----3--3-3--L-3-3--3--3-3-|
--3----3--3-3------L-3-3--3--3-3-|--3----3--3-3--L-3-3--3--3-3-|
--1----1--1-1------L-1-1--1--1-1-|--1----1--1-1--L-1-1--1--1-1-|
---------------------------------|-----------------------------|


            Bbsus4                            Bb                
  Q    E  S S      S S E  E  S S    Q    E  S S  S S E  E  S S  
---------------------------------|-----------------------------|
--4----4--4-4------L-4-4--4--4-4-|--3----3--3-3--L-3-3--3--3-3-|
--3----3--3-3------L-3-3--3--3-3-|--3----3--3-3--L-3-3--3--3-3-|
--3----3--3-3------L-3-3--3--3-3-|--3----3--3-3--L-3-3--3--3-3-|
--1----1--1-1------L-1-1--1--1-1-|--1----1--1-1--L-1-1--1--1-1-|
---------------------------------|-----------------------------|


            Bbsus4                            Bb                
  Q    E  S S      S S E  E  S S    Q    E  S S  S S E  E  S S  
---------------------------------|-----------------------------|
--4----4--4-4------L-4-4--4--4-4-|--3----3--3-3--L-3-3--3--3-3-|
--3----3--3-3------L-3-3--3--3-3-|--3----3--3-3--L-3-3--3--3-3-|
--3----3--3-3------L-3-3--3--3-3-|--3----3--3-3--L-3-3--3--3-3-|
--1----1--1-1------L-1-1--1--1-1-|--1----1--1-1--L-1-1--1--1-1-|
---------------------------------|-----------------------------|


            Bbsus4                            Bb                
  Q    E  S S      S S E  E  S S    Q    E  S S  S S E  E  S S  
---------------------------------|-----------------------------|
--4----4--4-4------L-4-4--4--4-4-|--3----3--3-3--L-3-3--3--3-3-|
--3----3--3-3------L-3-3--3--3-3-|--3----3--3-3--L-3-3--3--3-3-|
--3----3--3-3------L-3-3--3--3-3-|--3----3--3-3--L-3-3--3--3-3-|
--1----1--1-1------L-1-1--1--1-1-|--1----1--1-1--L-1-1--1--1-1-|
---------------------------------|-----------------------------|


            Bb                                                Bb                
  Q    E  S S  S S E  E  S S    W                   Q    E  S S  S S E  E  S S  
-----------------------------|--3----------------|-----------------------------|
--3----3--3-3--L-3-3--3--3-3-|--4----------------|--3----3--3-3--L-3-3--3--3-3-|
--3----3--3-3--L-3-3--3--3-3-|--3----------------|--3----3--3-3--L-3-3--3--3-3-|
--3----3--3-3--L-3-3--3--3-3-|--1----------------|--3----3--3-3--L-3-3--3--3-3-|
--1----1--1-1--L-1-1--1--1-1-|-------------------|--1----1--1-1--L-1-1--1--1-1-|
-----------------------------|-------------------|-----------------------------|


  H.           Q      
--3------------3----||
--4------------4----||
--3------------3----||
--1------------1----||
--------------------||
--------------------||


Suggest correction
Creating personal tab
Creating personal tab
You can edit any tab online and save it as your Personal.

You can edit, replace or remove any tab part or add personal notes – all changes will be seen only by you.

Personal tabs can be accessed anytime from any device, even offline.
Learn more »
comments
print report bad tab
guest
You may want to rate the tab now too:
select rating
Wanna post a correction for this tab? Suggest correction