Oops, an error
Loading. Please wait.

Starcrossd Tab

version 2
version 2

Whole song

1,055 views 3 this week
2 commentsread comments
1 2 3 4 5
x 3
add to favorites
launch autoscroll
font size
0
reset
how to read this tab
guitar tuner
×
Best way to learn
"Starcrossd"
Autoscroll
slow
fast
+/-
esc
set tempo
stop
e|----------------------------|
b|---5--6--8---5-6-8---5-6-8--|
g|---5--5--5---5-5-5---5-5-5--| repeat
a|----------------------------|
e|----------------------------|

Intro chords 
C  G  F
Am G  F

VERSE 1
F
Behold this night, still and clear
F                                  C
You look here just like an angel sleeping
F
I wish I could ease your fears
F                                       C
I would catch the diamond tears you're weeping
Am
In your eyes I would hide
F
By your side I could defy
Em                     F
The forces tearing us apart
F
But reality, as it seems
C
Looking back, is that our dream
        Dm              G
Was fated from the start


CHORUS
            C             G             F
Girl we're starcrossed and can't escape
           C          G        F
We're condemned and can only wait
         C             G       Dm
At this time now it's far too late
 Em         F          G
To save us from our fate


VERSE II
F                         F
I'll remain in your hold, Body, mind, heart and soul
     C
As long as I breathe
F                                  F
Though consequence takes its toll, All is out of our control
C
That's how it will be
Am
So close your eyes my young bride
F
Listen to me one last time
Em                          F
There's something I have to say
F
When your faith turns to despair
C
Always will my love be there
      Dm         G
And never fade away

2nd CHORUS
            C             G             F
Girl we're starcrossed and can't escape
           C          G        F
We're condemned and can only wait
         C             G       Dm
At this time now it's far too late
 Em         F          G
To save us from our fate

Em                F
You can't save us
Em
You can't save us


Solo

e|------------------------------------------------------------|
b|--12^-12^-------------12^-----------------------------------|
g|-----------12--10--9------12--10--9-10--12/10/12^-12^--10---|
d|------------------------------------------------------------|
a|------------------------------------------------------------|
E|------------------------------------------------------------|

e|------------------------------------------------------------|
b|--12^-12^-------------12^---------------------------15---15-|
g|-----------12--10--9------12--10--9-10--12/10/12/14^---14---|
d|------------------------------------------------------------|
a|------------------------------------------------------------|
E|------------------------------------------------------------|

            C             G             F
Girl we're starcrossed and can't escape
           C          G        F
We're condemned and can only wait
         C             G       Dm
At this time now it's far too late
 Em         F          G
The poison's in our veins
        C  G  F
It's true.......


[intro riff comes in again]

                          C  G F
You know that I'd die for you.......
                          C  G F
You know that I'd die for you.......
                          Am  G  D    C
You know that I'd die for you.......

e|---------------------------------------------|
b|---8/6/8^-8^-8^-6--5--6--8--5-6-8--5-6-8--5--|
g|-------------------5--5--5--5-5-5--5-5-5--5--|
d|---------------------------------------------|
a|---------------------------------------------|
e|---------------------------------------------|

there we go, i worked it out as good as i could, enjoy!
Suggest correction
Give kudos to tab author, rate the tab!
1 2 3 4 5
comments
print report bad tab
2 comments total.
0 reply
Blether 90 Nov 05, 2004 07:00 PM

Great effort dude.

0 reply
SamDking 321 Jan 14, 2005 07:00 PM

I'm pretty sure the intro is incorrect. To get the real effect you need to play (with distortion):

B |--5-6-8-x-5-6-8-x-5-6-8--|
G |--5-5-5-x-5-5-5-x-5-6-8--|

That's how I play it anyhow.

guest
You may want to rate the tab now too:
select rating
Wanna post a correction for this tab? Suggest correction