Oops, an error
Loading. Please wait.

Twilight Of The Innocents Tab

version 1
version 1

Whole song

by Ash
901 views 3 this week
no commentswrite comment
1 2 3 4 5
2 more votes to show rating
add to favorites
launch autoscroll
font size
0
reset
how to read this tab
guitar tuner
×
Best way to learn
"Twilight Of The Innocents"
Autoscroll
slow
fast
+/-
esc
set tempo
stop
Author
----------------------------------------------------------------------------
                      TWILIGHT OF THE INNOCENTS - Ash
----------------------------------------------------------------------------
Tabbed by: Chris Colyer
Email: csc501@york.ac.uk

Tuning: Standard

Violin Intro:
e|-------------------------------------------------------------------------|
B|-------------------------------------------------------------------------|
G|-------------------------------------------------------------------------|
D|----------7---------8--------7---------5---------------------------------|
A|-------------------------------------------------------------------------|
E|-------------------------------------------------------------------------|

Chime Thing:
e|---17--15--14------------------/18-17--15--13-----------------------/18|
B|--------------15-----18-17-15-----------------13---17-15--13-----------|
G|-----------------------------------------------------------------------|x2
D|-----------------------------------------------------------------------|
A|-----------------------------------------------------------------------|
E|-----------------------------------------------------------------------|

'Tell me the story...'
e|-----------------------------------------------------------------------|
B|-----------------------------------------------------------------------|
G|-----------------------------------------------------------------------|
D|----7--7--7--7--8--8--8--8-7--7--7--7--5--5--5--5----------------------|
A|-----------------------------------------------------------------------|
E|-----------------------------------------------------------------------|

Verse Breakdown Piano (with chime section over the top)
e|-------------------------------------------------------------------------|
B|--------------6----------------------------------------------------------|
G|---7----7-----5----5-----------------------------------------------------|
D|---7----8-----7----5-----------------------------------------------------|
A|-------------------------------------------------------------------------|
E|-------------------------------------------------------------------------|

Then Verse again but as:
e|------------------------------5---5---5--------------------------------|
B|--------10-10-10---11-11-11--------------8--8--8-----------------------|
G|------7----------7----------5----------5-------------------------------|
D|------7----------8----------7----------5-------------------------------|
A|-----------------------------------------------------------------------|
E|-----------------------------------------------------------------------|

Chorus (I'm still breathing, my hearts still beating...):
Violin:
e|---------------------------------------------------------------|
B|-----------------------------11--10---8------------------------|
G|-----7---10--9---7---10--------------------5-----------------5/|x4
D|---------------------------------------------------------------|
A|---------------------------------------------------------------|
E|---------------------------------------------------------------|
Over (faint but there)
e|----------------------------------|  |-----------------|
B|----------------------------------|  |-7---6---6---5---|
G|---7-7-7-7-7-7-7-7-5-5-5-5-5-5-5-5|  |-7---7---5---5---|
D|---7-7-7-7-8-8-8-8-7-7-7-7-5-5-5-5|x2|-7---8---7---5---|x2
A|----------------------------------|  |-----------------|
E|----------------------------------|  |-----------------|
Out-Chorus Guitar Lick (played over same as Violin Intro)
e|---------------10p8--------------3ah(15)-----------------------------|
B|---------------------------------------------------------------------|
G|---------------------------------------------------------------------|
D|---------------------------------------------------------------------|
A|---------------------------------------------------------------------|
E|---------------------------------------------------------------------|

New Verse (With extra Drum) Piano Plays:

e|--------------------------|  fourth time  |-----------|
B|--7---6---6---5-----------|  violin plays:|-----------|
G|--7---7---5---5-----------|x4             |-----------|
D|--7---8---7---5-----------|               |-----------|
A|--------------------------|               |-8-6-5-6-5-|                  
E|--------------------------|               |-----------|
Guitar Scratches, over these chords to the rhythm of the drum.

Pre-Epic Bit (heavily distorted guitar)
e|----------------------------------------------------------|
B|----------------------------------------------------------|
G|-----7p-5p-4h-5h-7p-5p-4h-5h-7p-5p-4----------------------|
D|----------------------------------------------------------|several times
A|----------------------------------------------------------|
E|----------------------------------------------------------|

Epic Bit Guitar:
e|--------------------------------------------------------------------|
B|----7---6---5---5---------------------------------------------------|
G|----7---7---5---5---------------------------------------------------|x4
D|----7---8---7---5---------------------------------------------------|
A|--------------------------------------------------------------------|
E|--------------------------------------------------------------------|
Violin accompanyment
e|---------------------------------------------------------------------|
B|---------------------------------------------------------------------|
G|-/15-14--12--11------------------/15-14--12--11----------------------|x4
D|----------------12-----15-14-12-----------------11--15--13--11-------|
A|---------------------------------------------------------------------|
E|---------------------------------------------------------------------|

Whooooooooooooooooooooa.... (Guitar Rhythm varies)
e|-----------------------------------------------------------------|
B|----7-7-7-7--6-6-6---6-6-6---5-5-5----------------------------|
G|----7-7-7-7--7-7-7---5-5-5---5-5-5----------------------------|x4
D|----7-7-7-7--8-8-8---7-7-7---5-5-5----------------------------|
A|--------------------------------------------------------------|
E|--------------------------------------------------------------|
Crazy Violin.

Chorus Same chords as second half of first chorus, different Rhythm

Reprise of The Epic instrumental, again rhythmic variation, otherwise much the same.

Quiet Outro Part One (with Drum)
e|--------------------------12-13-------------------------10-12------|
B|---10-10-10-10---11-11----------10---10-10-10----8--8--------------|
G|-------------------------------------------------------------------|
D|-----12-12-12------12-12----12-----12-------------10-10---10-------|x1
A|-------------------------------------------------------------------|
E|-------------------------------------------------------------------|
Part Two
e|-------------------------------------------------------------------|
B|---10--10-10-10---11--11-11-11-10--10-10-10-8-8-8-8----------------|
G|-------------------------------------------------------------------|
D|-----12-------------12-----------12--------------------------------|x3
A|-------------------------------------------------------------------|
E|-------------------------------------------------------------------|
End Note
e|-------------------------------------------------------------------|
B|-------------------------------------------------------------------|
G|-------------------------------------------------------------------|
D|-------------------------------------------------------------------|
A|--12---------------------------------------------------------------|
E|--10---------------------------------------------------------------|

Well I've not tabbed all the violin jazz, but I guess the guitars the more important bit!

any comments welcome.

| /  slide up
| \  slide down
| h  hammer-on
| p  pull-off
| ~  vibrato
| +  harmonic
| x  Mute note
| ah() Artifical Harmonic (number in brackets is were to pluck)
============================================================================
Suggest correction
Give kudos to tab author, rate the tab!
1 2 3 4 5
comments
print report bad tab
guest
You may want to rate the tab now too:
select rating
Wanna post a correction for this tab? Suggest correction