Oops, an error
Loading. Please wait.

Warmer Than Fire tab

by Ash
974 views 3 this week
no commentswrite comment
1 2 3 4 5
2 more votes to show rating
add to favorites
×
Save as Personal and add changes to this tab that will be seen only by you. Learn more ›
×
You can save this tab as Personal to edit and correct it or add notes. All changes will be seen only by you. Learn more »
launch autoscroll
font size
0
reset
how to read this tab
guitar tuner
edit
Autoscroll
slow
fast
+/-
esc
set tempo
stop
"Warmer Than Fire" by Ash
From the single Shining Light, CD 1, track 2.
Words and music by S.Ludwin.
Transcription by Ian McAllister 

----------------------------------------------------------------------------------------------
Guitar A plays the lead parts,
Guitar B plays the rhythm parts.

Intro:
(Guitar A plays the Intro)
1---------------------------------------------------------------------------------------------|
2---------------------------------------------------------------------------------------------|
3---------------------------------------------------------------------------------------------|
4--------2----------2---------2-----------2---------------------------------------------------|
5--0-3----------0----------3----------0-------------------------------------------------------|
6---------------------------------------------------------------------------------------------|

(Guitar A plays the following RIFF, RIFF A, during Verse 1 twice.)
1-------------------------------------------------------------------------10--12--10----------|
2--------------12-h-13--12-------------------------------------------------------------12--13-|
3-12-s-14-14----------------12-s-14-14--------------------------------------------------------|
4-----------------------------------------12-h-14-12------------------------------------------|
5---------------------------------------------------------14-s-15-15--------------------------|
6---------------------------------------------------------------------------------------------|

VERSE 1:

C                 Am        D              C
Currents that are stronger, wanna drag you under,

G             F     G                C
I would never tire, swimming next to you.

C         Am      D           C
We became united, twisted and enlightened,

G          F     G                C
Skating on fire, yes you know its true.

Guitar A plays the following RIFF, RIFF B, during Verse 2 twice.
1--------------------------------------------------------------------------------------------|
2-------------10--10--8-------------------0---------------0----------------------------------|
3-------12-----------------9---------12-------------12---------------------------------------|
4--10---------------------------10-------------10--------------------------------------------|
5--------------------------------------------------------------------------------------------|
6--------------------------------------------------------------------------------------------|

VERSE 2:

C                Am         D               C
She took off her tee shirt, like a worm I'd eat dirt,

G          F           G            C
Just to be beside her, every single night.

C                  Am       D              C
Golf ball hail and thunder, rum and Stevie Wonder,

G            F    G            C
Warmer than fire, getting into you.

SEMI-CHORUS:

C     Dm     G  F                            G       C
These memories, dear god I hope she's always next to me.

VERSE 3:

C                Am       D              C
Picking and then peaking, with the costa ricans,

G          F          G                 C
Lying on a surfboard, four weeks of the year.

C              Am     D                 C
She was in her cycle, crashed her motorcycle,

G              F        G              C
Broken toes in plaster, stiches in her arm.

CHORUS:

C     Dm     G  F                            G       C
These memories, dear god I hope she's always next to me,

C     Dm   G          F                           G       C
When we're deceased, dear god I hope she's always next to me.


SOLO:
(Guitar A plays solo twice, Guitar B plays "C Am D C G F G C" twice during solo)

1----------------------------------------------------------------------------------------------------|
2-----------------------------10-s-12-s-10-----------------------------------------------------------|
3-7-s-9---7---------------------------------12-h-11-12-12----9-h-7----------------9-h-7--------------|  X2
4------------h10h9-10--10----------------------------------------------10-h-9-10-10--------10h9-10---|
5----------------------------------------------------------------------------------------------------|
6----------------------------------------------------------------------------------------------------|

C     Dm     G  F                            G       C
These memories, dear god I hope she's always next to me,

C     Dm   G          F                           G       C
When we're deceased, dear god I hope she's always next to me.

C     Dm     G  F                            G       C
These memories, dear god I hope she's always next to me,

C     Dm   G          F                           G       C
When we're deceased, dear god I hope she's buried next to me.

F                            G       C   F                            G       C
Dear god I hope she's buried next to me, dear god I hope she's buried next to me.

END with Guitar A playing:

1-------------------------------------------------------------------------10--12--10----------|
2--------------12-h-13--12-------------------------------------------------------------12--13-|
3-12-s-14-14----------------12-s-14-14--------------------------------------------------------|
4-----------------------------------------12-h-14-12------------------------------------------|
5---------------------------------------------------------14-s-15-15--------------------------|
6---------------------------------------------------------------------------------------------|

            
            
Suggest correction
Creating personal tab
Creating personal tab
You can edit any tab online and save it as your Personal.

You can edit, replace or remove any tab part or add personal notes – all changes will be seen only by you.

Personal tabs can be accessed anytime from any device, even offline.
Learn more »
Give kudos to tab author, rate the tab!
1 2 3 4 5
comments
print report bad tab
guest
Wanna post a correction for this tab? Suggest correction