Oops, an error
Loading. Please wait.

You Cant Have It All bass

version 1
version 1

Whole song

Interactive

by Ash
502 views 1 this week
no commentswrite comment
1 2 3 4 5
2 more votes to show rating
add to favorites
×
Save as Personal and add changes to this tab that will be seen only by you. Learn more ›
×
You can save this tab as Personal to edit and correct it or add notes. All changes will be seen only by you. Learn more »
launch autoscroll
font size
0
reset
guitar tuner
edit
Autoscroll
slow
fast
+/-
esc
set tempo
stop
Difficulty
intermediate
This is 110% right no dout about it its a little bit difficult but is right when you
it with the song.
this is the best song by ash since burn baby burn but i love this one more because the
is well good anyway enjoy playing it btw if u have seen my tabs befor like the bass tab
fans by kings of leon you know that i play a six string bass but just ignor the B and C 
and you have a 4 string so der.


Intro(play 2 time guitar plays intro)
C----------------------------------------------------------------------------------|
G----------------------------------------------------------------------------------|
D----------------------------------------------------------------------------------|
A--0-0-0-0-0-0-0-5-7-7-7-7-7-7-7-7--0-0-0-0-0-0-0-5-7-7-7-7-7-7-7-7--7-5-3-2-------|
E----------------------------------------------------------------------------------|
B----------------------------------------------------------------------------------|

verse(start playing this after the intro up to the chorus)
C----------------------------------------------------------------------------------|
G----------------------------------------------------------------------------------|
D----------------------------------------------------------------------------------|
A-0-0--------------2---------------------------------------------------------------|
E-----0-3-0-2-0--0---0-3-0-4-5-----------------------------------------------------|
B----------------------------------------------------------------------------------|


Chorus(play till the \\\'oooooooo\\\' bit)
C----------------------------------------------------------------------------------|
G----------------------------------------------------------------------------------|
D----------------------------------------------------------------------------------|
A--5-5-5---------3-3-3-------------------------------------------------------------|
E--------3-3-3-3-------1-1-1-1-----------------------------------------------------|
B----------------------------------------------------------------------------------|

(play this bit when he sings \\\'oooooooo\\\')
C----------------------------------------------------------------------------------|
G----------------------------------------------------------------------------------|
D----------------------------------------------------------------------------------|
A---------2-3-0-2---2222222-5-7777-7-5-3-2-----------------------------------------|
E-5-2-4-5--------------------------------------------------------------------------|
B----------------------------------------------------------------------------------|

then it goes back into the verse but the middle 8 is this
C----------------------------------------------------------------------------------|
G----------------------------------------------------------------------------------|
D----------------------------------------------------------------------------------|
A----------------------------------------------------------------------------------|
E-0-0-3-1-0------------------------------------------------------------------------|
B----------------------------------------------------------------------------------|

then chorus then verse i fink i dunno i cant remember the structure but if u listen to
song get it in order it sounds perfect any think wrong with the  tab e-mail me on
cya
Suggest correction
Creating personal tab
Creating personal tab
You can edit any tab online and save it as your Personal.

You can edit, replace or remove any tab part or add personal notes – all changes will be seen only by you.

Personal tabs can be accessed anytime from any device, even offline.
Learn more »
Give kudos to tab author, rate the tab!
1 2 3 4 5
comments
print report bad tab
guest
Wanna post a correction for this tab? Suggest correction