Oops, an error
Loading. Please wait.

I Love College Tab

version 1
version 1

Whole song

Interactive

17,667 views 3 this week
5 commentsread comments
1 2 3 4 5
x 4
add to favorites
launch autoscroll
font size
0
reset
how to read this tab
guitar tuner
Autoscroll
slow
fast
+/-
esc
set tempo
stop
Help us to improve Ultimate-Guitar.com Take our survey!
×
Author
E |----------4--------------6-------4-----------------|
B |--3---6---6---6----------8---3---6---6-------------|
G |--5---8---6---8----------8---5---6---8-------------|
D |--5---8-------8--------------5-------8-------------|
A |---------------------------------------------------|
E |---------------------------------------------------|


very simple tab, just roll those chords the whole way through.

-dca
Suggest correction
comments
print report bad tab
5 comments total. Showing first comments.
0 reply
Infamou$17 170 May 03, 2009 05:04 PM

Seriously? Are you tone deaf?

0 reply
skanal1 157 May 13, 2009 07:40 AM

wrong song maybe

+1 reply
rowdyryan2005 10 May 29, 2009 12:14 PM

the tab has just came out wrong. I think if you play it like power chords it sounds better. By the way this is my first attempt ever correcting something or doing a tab so go easy :D

E |---------------------------------------------------|
B |---------------------------------------------------|
G |--5---8-------8--------------5-------8-------------|
D |--5---8---6---8----------8---5---6---8-------------|
A |--3---6---6---6----------8---3---6---6-------------|
E |----------4--------------6-------4-----------------|

guest
You may want to rate the tab now too:
select rating
Wanna post a correction for this tab? Suggest correction