Oops, an error
Loading. Please wait.

I Love College Bass

version 2
version 2

Whole song

Interactive

13,806 views 3 this week
1 commentread comment
1 2 3 4 5
x 3
add to favorites
×
Save as Personal and add changes to this tab that will be seen only by you. Learn more ›
×
You can save this tab as Personal to edit and correct it or add notes. All changes will be seen only by you. Learn more »
save as personal
new!
launch autoscroll
font size
0
reset
guitar tuner
Autoscroll
slow
fast
+/-
esc
set tempo
stop
I Love College by Asher Roth
Standard Tuning E A D G

G|-----------------------------------------|
D|-----1-1-1---------------------6-6-------|
A|-3-3---------------------3-3-3-----6-6-6/|
E|-----------4-4-0-0-0-6-6-----------------|

Repeat for the whole song
tell me how i did at hportdrummer@gmail.com
have fun playing it
Suggest correction
Give kudos to tab author, rate the tab!
1 2 3 4 5
comments
print report bad tab
1 comment total.
0 reply
sphetr2 16 Jun 11, 2009 07:58 AM

G|-----------------------------------------|
D|-----1-1-1---------------------6-6-------|
A|-3-3---------------------3-3-3-----6-6-6/|
E|-----------4-4-1-1-1-6-6-----------------|

is what i think it should be

guest
Wanna post a correction for this tab? Suggest correction