Oops, an error
Loading. Please wait.

I Love College Bass Tab

version 5
version 5

Interactive

667 views 3 this week
no commentswrite comment
1 2 3 4 5
please rate
add to favorites
launch autoscroll
font size
0
reset
guitar tuner
Autoscroll
slow
fast
+/-
esc
set tempo
stop
Help us to improve Ultimate-Guitar.com Take our survey!
×
Difficulty
Tuning
novice
D A D G B E
It's very simple: Just repeat the same riff throughout the song.

Main Riff: after "...sucker no way!"

G|------------------------1------|
D|-----1-----------------1---1---|
A|--3------------1---3-----------|
D|--------56--0------------------|

I added a simple filler for in between the riffs


G|----------------------------| restart    
D|---5-3-1--------------------| main riff
A|---------3------------------| from
D|----------------------------| here 
Suggest correction
Give kudos to tab author, rate the tab!
1 2 3 4 5
comments
print report bad tab
guest
You may want to rate the tab now too:
select rating
Wanna post a correction for this tab? Suggest correction