Oops, an error
Loading. Please wait.

I Love College Bass Tab

version 6
version 6

Interactive

125 views 1 this week
no commentswrite comment
1 2 3 4 5
3 more votes to show rating
add to favorites
launch autoscroll
font size
0
reset
guitar tuner
Autoscroll
slow
fast
+/-
esc
set tempo
stop
Help us to improve Ultimate-Guitar.com Take our survey!
×
Author
Difficulty
novice
Song: I Love College
Artist: Asher Roth
Album: Asleep in the Bread Isle

TAB: Lucky_111591
Tuning: whole step down (F C G D)

Riff 1 (Rest)
|--------|--------|--------|--------|--------|--------|
|--------|--------|--------|--------|--------|--------|
|--------|--------|--------|--------|--------|--------|
|--------|--------|--------|--------|--------|--------|


Riff 2 (Intro)
|--------|--------|--------|--------|--------|--------|
|0-30----|--3-----|3---2---|0-30----|--3-2--0|--------|
|-----0--|----033-|--------|-----0--|-0-0-03-|--------|
|--------|--------|--------|--------|--------|--------|


Riff 3 (chorus/verse)
|--------|--------|--------|--------|--------|--------|
|0-30----|--------|3---2---|0-30----|--3-2--0|3---2---|
|-----0--|----033-|--------|-----0--|-0-0-03-|--------|
|--------|--------|--------|--------|--------|--------|


Riff 4 (verse)
|--------|--------|--------|--------|--------|--------|
|0-30----|--3-----|3---2---|0-30----|--3-2--0|3---2---|
|-----0--|----033-|--------|-----0--|-0-0-03-|--------|
|--------|--------|--------|--------|--------|--------|


Riff 5 (verse)
|--------|--------|--------|--------|--------|--------|
|0-30----|--------|3---2---|0-30----|--3-2--0|3-------|
|-----0--|----033-|--------|-----0--|-0-0-03-|--------|
|--------|--------|--------|--------|--------|--------|


Play in this order:
Riff 1
Riff 2
Riff 3 (x2)
Riff 4
Riff 3
Riff 5
Riff 3 (x2)
Riff 1
Riff 4
Riff 3 (x4)
Riff 1
Riff 4
Riff 3 (x4)
Riff 1

fin
Suggest correction
Give kudos to tab author, rate the tab!
1 2 3 4 5
comments
print report bad tab
guest
You may want to rate the tab now too:
select rating
Wanna post a correction for this tab? Suggest correction