Oops, an error
Loading. Please wait.

Come Alive tab

1,716 views 6 this week
no commentswrite comment
1 2 3 4 5
x 3
add to favorites
×
Save as Personal and add changes to this tab that will be seen only by you. Learn more ›
×
You can save this tab as Personal to edit and correct it or add notes. All changes will be seen only by you. Learn more »
launch autoscroll
font size
0
reset
how to read this tab
guitar tuner
edit
Autoscroll
slow
fast
+/-
esc
set tempo
stop
-------------------------------------------------------------------------------
                             Come Alive - Ashes Remain
-------------------------------------------------------------------------------

An awesome song from their awesome album "What I've Become"

Tabbed by: Griffin Waldhauser
Email: griffwaldo@gmail.com

Tuning: Drop C

Intro:
D|---------------------------------------------------------------------------|
A|---------------------------------------------------------------------------|
F|---------------------5---5-5-5-x-------------------------------------------|
C|-4---4-4-4-x-5-5-x-x-5---5-5-5-x-8-8p7-------------------------------------| 2x
G|-0---0-0-0-x-3-3-x-x-3---3-3-3-x-5-5---------------------------------------|
C|-0---0-0-0-x-3-3-x-x-------------5-5---------------------------------------|

Verse 1:
D|---------------------------------------------------------------------------|
A|---------------------------------------------------------------------------|
F|---------------------------------------------------------------------------|
C|-0-0---0-0-----0-0----x3-x5-0-0---0-0-----3-3-3-3-5-5-5-5------------------| 2x
G|-0-0---0-0-----0-0----x3-x5-0-0---0-0-----3-3-3-3-5-5-5-5------------------|
C|-0-0---0-0-----0-0----x3-x5-0-0---0-0-----3-3-3-3-5-5-5-5------------------|

Pre-chorus:
D|---------------------------------------------------------------------------|
A|---------------------------------------------------------------------------|
F|-3-3-3-3-5-5-5-5----------------------------3-3-3-3-5-5-5-5----------------|
C|-3-3-3-3-5-5-5-5----------------------------3-3-3-3-5-5-5-5----------------|
G|-1-1-1-1-3-3-3-3---------3------------3s5s3-1-1-1-1-3-3-3-3----------------|
C|-----------------0h3h5p0---0---h3h5p0--------------------------------------|

Chorus:
D|---------------------------------------------------------------------------|
A|---------------------------------------------------------------------------|
F|---------------------5---5-5-5-x-------------------------------------------|
C|-4---4-4-4-x-5-5-x-x-5---5-5-5-x-8-8p7-------------------------------------| 3x
G|-0---0-0-0-x-3-3-x-x-3---3-3-3-x-5-5---------------------------------------|
C|-0---0-0-0-x-3-3-x-x-------------5-5---------------------------------------|

D|---------------------------------------------------------------------------|
A|---------------------------------------------------------------------------|
F|-3-3-3-3-3-3-3-3-5-5-5-5-5-5-5-5-------------------------------------------|
C|-3-3-3-3-3-3-3-3-5-5-5-5-5-5-5-5-------------------------------------------|
G|-1-1-1-1-1-1-1-1-3-3-3-3-3-3-3-3-------------------------------------------|
C|---------------------------------------------------------------------------|

Post-chorus 1:
D|---------------------------------------------------------------------------|
A|---------------------------------------------------------------------------|
F|---------------------------------------------------------------------------|
C|------------------------------------------------------3--------------------|
G|---------3--------------3s5s3---------3---0-5-3-0-----3--------------------|
C|-0h3h5p0-----0---h3h5p0-------0h3h5p0-------------5-0-3--------------------|

Verse 2:
D|---------------------------------------------------------------------------|
A|---------------------------------------------------------------------------|
F|---------------------------------------------------------------------------|
C|-0-0---0-0-----0-0----x3-x5-0-0---0-0-------3-3-3-5-5-5-5------------------|
G|-0-0---0-0-----0-0----x3-x5-0-0---0-0-------3-3-3-5-5-5-5------------------|
C|-0-0---0-0-----0-0----x3-x5-0-0---0-0-------3-3-3-5-5-5-5------------------|

Pre-chorus

Chorus

Post-chorus 2:
D|---------------------------------------------------------------------------|
A|---------------------------------------------------------------------------|
F|---------------------------------------------------------------------------|
C|---------------------------------------------------------------------------|
G|---------3--------------3s5s3---------3---0-5-3-0---3s5s3------------------|
C|-0h3h5p0-----0---h3h5p0-------0h3h5p0-------------5------------------------|

Solo:
D|---------------------------------------------------------------------------|
A|-13b15---------------------------------------------------------------------|
F|---------12b14r12p10h12~---------12-11b12----------------------------------|
C|---------------------------10h12----------12-10-12~-10---------------------|
G|---------------------------------------------------------------------------|
C|---------------------------------------------------------------------------|

D|----------------------10---------------------------------------------------|
A|-12b13-13r12p10-12~---12b13-13r12p10-12~-----------------------------------|
F|---------------------------------------------------------------------------|
C|---------------------------------------------------------------------------|
G|---------------------------------------------------------------------------|
C|---------------------------------------------------------------------------|

D|-17b18r17-17~15h17p15----15-------------(20s19)----------------------------|
A|----------------------18----18-17-18-17---------15s13----------------------|
F|---------------------------------------------------------------------------|
C|---------------------------------------------------------------------------|
G|---------------------------------------------------------------------------|
C|---------------------------------------------------------------------------|

D|---------------------------------------------------------------------------|
A|-15p13-------13------------------------------------------------------------|
F|-------14-12----14-12-10-12-10-------12------------------------------------|
C|-------------------------------12-10---------------------------------------|
G|---------------------------------------------------------------------------|
C|---------------------------------------------------------------------------|

D|------------------------------------------------------10-10-------13-13p10-|
A|-------------------------------10-10-------13-13p10---------13p10----------|
F|-------10-10-------12-12-10h12-------12p10----------12---------------------|
C|-10h12-------12p10---------------------------------------------------------|
G|---------------------------------------------------------------------------|
C|---------------------------------------------------------------------------|

D|----15-15p13----17-17p15p13----------------10h15-T19p15p10-----------------|
A|-13----------15-------------------------12-----------------12--------------|
F|-------------------------------------12-----------------------12-----------|
C|----------------------------------12-----------------------------12--------|
G|----------------------------10h14-----------------------------------14p10--|
C|---------------------------------------------------------------------------|

D|-15b17-17r15-15~-15p13-17p15p13--------------------------------------------|
A|--------------------------------15p13h15---12b13---------------------------|
F|-------------------------------------------------12h14-10b11---------------|
C|-------------------------------------------------------------12-12---12----|
G|---------------------------------------------------------------------------|
C|---------------------------------------------------------------------------|

D|---------------------------------------------------------------------------|
A|------------------------------------------11-T13s15s13p11------------------|
F|---------------------------------------10-----------------10---------------|
C|-10h12--------------------12---8h10s12-----------------------12s10p8h10s12-|
G|-------10-8----10p8--------------------------------------------------------|
C|------------12------12p10--------------------------------------------------|

D|--------------------h13-T18s20s18p13p10------------------------------------|
A|----11-T13s15s13p11---------------------13p11---------------------------13-|
F|-10-------------------------------------------10s9-------------------12----|
C|---------------------------------------------------12p10----10h12s14-------|
G|---------------------------------------------------------12----------------|
C|---------------------------------------------------------------------------|

D|---------------------------------------------------h15-T22s21p15p12--------|
A|-T15s17s15p13----------------------13-T15s17s15p13------------------15p13--|
F|--------------12----------------12-----------------------------------------|
C|-----------------14p12s10h12s14--------------------------------------------|
G|---------------------------------------------------------------------------|
C|---------------------------------------------------------------------------|

D|---------------------------------------------------------------------------|
A|----------15---------------------------------------------------------------|
F|-14p12---------------------------------------------------------------------|
C|-------12------------------------------------------------------------------|
G|---------------------------------------------------------------------------|
C|---------------------------------------------------------------------------|

Chorus/Outro:
D|---------------------------------------------------------------------------|
A|---------------------------------------------------------------------------|
F|---------------------5---5-5-5-x-------------------------------------------|
C|-4---4-4-4-x-5-5-x-x-5---5-5-5-x-8-8---------------------------------------|
G|-0---0-0-0-x-3-3-x-x-3---3-3-3-x-5-5---------------------------------------|
C|-0---0-0-0-x-3-3-x-x-------------5-5---------------------------------------|

D|---------------------------------------------------------------------------|
A|---------------------------------------------------------------------------|
F|-3-3-3-3-3-3-3-3-5-5-5-5-5-5-5-5-------------------------------------------|
C|-3-3-3-3-3-3-3-3-5-5-5-5-5-5-5-5-------------------------------------------|
G|-1-1-1-1-1-1-1-1-3-3-3-3-3-3-3-3-------------------------------------------|
C|---------------------------------------------------------------------------|

D|---------------------------------------------------------------------------|
A|---------------------------------------------------------------------------|
F|---------------------5---5-5-5-x-------------------------------------------|
C|-4---4-4-4-x-5-5-x-x-5---5-5-5-x-8-8p7-------------------------------------| x3
G|-0---0-0-0-x-3-3-x-x-3---3-3-3-x-5-5---------------------------------------|
C|-0---0-0-0-x-3-3-x-x-------------5-5---------------------------------------|

D|---------------------------------------------------------------------------|
A|---------------------------------------------------------------------------|
F|-3-3-3-3-3-3-3-3-5-5-5-5-5-5-5-5-------------------------------------------|
C|-3-3-3-3-3-3-3-3-5-5-5-5-5-5-5-5-------------------------------------------|
G|-1-1-1-1-1-1-1-1-3-3-3-3-3-3-3-3---------3--------------3s5s3---------3----|
C|---------------------------------0h3h5p0-----0---h3h5p0-------0h3h5p0------|

D|---------------------------------------------------------------------------|
A|---------------------------------------------------------------------------|
F|---------------------------------------------------------------------------|
C|-------------3-------------------------------------------------------------|
G|-0-5-3-0-----3-------------------------------------------------------------|
C|---------5-0-3-------------------------------------------------------------|

End.

That's it! 

A huge thanks to Josh, Rob, Ben, Ryan, and Jon for being awesome!

ASHES REMAIN ROCKS!

            
            
Suggest correction
Creating personal tab
Creating personal tab
You can edit any tab online and save it as your Personal.

You can edit, replace or remove any tab part or add personal notes – all changes will be seen only by you.

Personal tabs can be accessed anytime from any device, even offline.
Learn more »
Give kudos to tab author, rate the tab!
1 2 3 4 5
comments
print report bad tab
guest
You may want to rate the tab now too:
select rating
Wanna post a correction for this tab? Suggest correction