Oops, an error
Loading. Please wait.

Lookin For A Buzz chords

100 views 3 this week
1 commentread comment
1 2 3 4 5
x 12
add to favorites
×
Save as Personal and add changes to this tab that will be seen only by you. Learn more ›
×
You can save this tab as Personal to edit and correct it or add notes. All changes will be seen only by you. Learn more »
launch autoscroll
font size
0
reset
transpose
0
reset
display chords
guitar tuner
edit
Autoscroll
slow
fast
+/-
esc
set tempo
stop
Strumming
There is no strumming pattern for this song yet. and get +5 IQ
SONG:   LOOKIN' FOR A BUZZ
ARTIST: ASHLEY McBRYDE
TAB BY: DON CZARSKI
EMAIL:  GUITARZAN7@HOTMAIL.COM


               LOOKIN' FOR A BUZZ
                 ASHLEY McBRYDE

CAPO: 2nd FRET

INTRO:

   G        D         A      F#m G
E ---------------------------------
B ---------------------------------
G -------2------------------2------
D -0h2-4----0h2-4-4---0h2-4---4-0--
A ---------------------------------
E ---------------------------------


VERSE:
 G
Begging the crowd on a Tuesday night
       A
I was having my usual on ice
     G            A
And you walked by

     G
One hour, two drinks, and three shots later
   A
I talked you into having one tail gator
        G
In the parking lot
               A
Gator started getting hot


CHORUS:
        G                                       D
I just wanted a high from your whiskey sipping lips
                               A
One time, no strings, no promises
                     F#m               G
And you were looking too good not to touch,
         G
Not to touch

     G
Who knew you'd make my head start spinning
 D                                     A
Faster then anything I'd pour in this cup
         F#m          G  G
I wasn't looking for love
            A  A          G   
I was just lookin' for a buzz

   G        D         A      F#m G
E ---------------------------------
B ---------------------------------
G -------2------------------2------
D -0h2-4----0h2-4-4---0h2-4---4-0--
A ---------------------------------
E ---------------------------------


VERSE:
         G
Little drunk
  G
Drippings off a cool Mason jar
 A
Summer heat melting both our hearts
     G
Here in the dark
          A
How'd it get this far


CHORUS:
        G                                       D
I just wanted a high from your whiskey sipping lips
                               A
One time, no strings, no promises
                     F#m               G
And you were looking too good not to touch,
         G
Not to touch

     G
Who knew you'd make my head start spinning
 D                                     A
Faster then anything I'd pour in this cup
         F#m          G  G
I wasn't looking for love
            A  A          G
I was just lookin' for a buzz


INSTRUMENTAL:

GUITAR 1 plays this while GUITAR 2 plays a SOLO:

   G        D         A      F#m G
E ---------------------------------
B ---------------------------------
G -------2------------------2------
D -0h2-4----0h2-4-4---0h2-4---4-0--
A ---------------------------------
E ---------------------------------


CHORUS:
        G                                       D
I just wanted a high from your whiskey sipping lips
                               A
One time, no strings, no promises
                     F#m          G
And you were looking too good
N.C.
Not to touch

     G
Who knew you'd make my head start spinning
 D                                     A
Faster then anything I'd pour in this cup
         F#m          G  G
I wasn't looking for love
            A  A          G    
I was just lookin' for a buzz

   G        D                          A      F#m G
E --------------------------------------------------
B --------------------------------------------------
G -------2-----------------------------------2------
D -0h2-4----0h2-4-4--------------------0h2-4---4-0--
A --------------------------------------------------
E --------------------------------------------------
                    Lookin' for a buzz


OUTRO:

   G        D         A      F#m G
E ---------------------------------
B ---------------------------------
G -------2------------------2------
D -0h2-4----0h2-4-4---0h2-4---4-0--
A ---------------------------------
E ---------------------------------





            
            
Suggest correction
Creating personal tab
Creating personal tab
You can edit any tab online and save it as your Personal.

You can edit, replace or remove any tab part or add personal notes – all changes will be seen only by you.

Personal tabs can be accessed anytime from any device, even offline.
Learn more »
comments
print report bad tab
1 comment total.
-1 reply
Davidkk1958 656 Jul 25, 2017 11:29 AM

Now this is great work! Easy to follow and easy chording.

guest
You may want to rate the tab now too:
select rating
Wanna post a correction for this tab? Suggest correction