Oops, an error
Loading. Please wait.

24 Ji Tab

version 1
version 1

Whole song

Interactive

3,731 views 3 this week
2 commentsread comments
1 2 3 4 5
1 last vote to show rating
add to favorites
launch autoscroll
font size
0
reset
how to read this tab
guitar tuner
Autoscroll
slow
fast
+/-
esc
set tempo
stop
Help us to improve Ultimate-Guitar.com Take our survey!
×
Author
E flat tuning, it could be standard also, just move all notes half step up.
Tabbed by Albert the Chu-meister
This is all lead, c'mon... you know lead is way more fun to play... you only hear
lead in this song anyways.
Forewarning: For all the notes I only put one strum, that doesn't mean play it once,
listen to the song and figure out how many times to hit the note. Also, figure out the
strumming for the chords. 
I don't understand Japanese so I don't know the location of their intro and etc. Just
follow this the whole way through. ^^v

Eb|------------------------|
Bb|------------------------| 
Gb|--8---6---9---8---------| 
Db|------------------------| 
Ab|--6---4---7---6---------| 
Eb|------------------------| 

Eb|------------------------|
Bb|--11---9----------------| 
Gb|-----------10---8-------| 
Db|------------------------| 4x
Ab|------------------------| 
Eb|------------------------| 

Eb|------------(add on last repeat)--|
Bb|--12---11---7---9---(7)-----------| 
Gb|----------------------------------| 
Db|----------------------------------| 2x
Ab|----------------------------------| 
Eb|----------------------------------| 

Eb|----------------(on 4th and 8th repeat---|
Bb|-----------------replace last 3 chords)--| 
Gb|--6---8---9--8--6--8---(11)--------------| 
Db|-----------------------------------------| 8x
Ab|--4---6---7--6--4--6---(9-)--------------| 
Eb|-----------------------------------------| 

Eb|-------------------------------------|
Bb|--11---9------------(on last repeat)-| 
Gb|-----------10---8---(8---6---9---8)--| 
Db|-------------------------------------| 4x
Ab|-------------------------------------| 
Eb|-------------------------------------| 

Eb|------------------------|
Bb|------------------------| 
Gb|--8---6---9---8---------| 
Db|------------------------| 6x
Ab|--6---4---7---6---------| 
Eb|------------------------| 

Eb|------------------------|
Bb|------------------------| 
Gb|------------------------| 
Db|----9-------------------| 4x
Ab|--7-----9---6-----------| 
Eb|------7---4---2-2-------| 

Eb|------------------------|
Bb|--11--12--11---12-------| 
Gb|------------------------| 
Db|------------------------| 4x
Ab|------------------------| 
Eb|------------------------| 

Eb|--------------------------------------|
Bb|--9--7--11--9---12---11---7---9---7---| 
Gb|--------------------------------------| 
Db|--------------------------------------| 
Ab|--------------------------------------| 
Eb|--------------------------------------| 

Eb|----------------(on the 4th, 8th, 12th repeat---|
Bb|-----------------replace last 3 chords)---------| 
Gb|--6---8---9--8--6--8---(11)---------------------| 
Db|------------------------------------------------| 12x
Ab|--4---6---7--6--4--6---(9-)---------------------| 
Eb|------------------------------------------------| 

Eb|------------------------|
Bb|------------------------| 
Gb|--8--6--9--8------------| 
Db|------------------------| 4x
Ab|--6--4--7--6------------| 
Eb|------------------------| 

badboyslim888@hotmail.com
Suggest correction
Give kudos to tab author, rate the tab!
1 2 3 4 5
comments
print report bad tab
2 comments total.
0 reply
Mr.Tanaka 10 May 22, 2006 06:20 PM

excuse me for my rudeness...but that sounds nothing like it...soz 'bout ur luck...the verse is WAY off... if you listen carefully u can hear an extra note NOT from the backup, but from the lead... i think i might post a tab for myself of this song.... just to tell you how its done...o ya..i almost forgot...the intro is also WAY off...it sounds compleatly diff...*sigh* u need to go outside the box on this one...soz..i give u a 2 for trying.

0 reply
FoolOnThePlanet 230 Sep 08, 2006 09:21 PM

Intro:
e------------------------------------
B--3-3-3--1-x--4-4--3----------------
G--3-3-3--2-x--5-5--3----------------
D------------------------------------
A------------------------------------
E------------------------------------

guest
You may want to rate the tab now too:
select rating
Wanna post a correction for this tab? Suggest correction