Oops, an error
Loading. Please wait.

Flash Back Bass Tab

version 1
version 1

Whole song

Interactive

975 views 1 this week
no commentswrite comment
1 2 3 4 5
please rate
add to favorites
launch autoscroll
font size
0
reset
guitar tuner
Tab Pro tools
  • play this tab
  • loop segment
  • change instrument
  • show fretboard
  • metronome
×
Best way to learn
"Flash Back"
Autoscroll
slow
fast
+/-
esc
set tempo
stop
Difficulty
novice
Asian Kung-Fu Generation - Flashback
By: Technovirus (http://technovir.us)

Intro [x2]								   Second Time:
G|-----------------|-----------------|-----------------|-----------------||--9-------------|
D|-----------------|-5-------(5)-----|-----------------|-7-------(7)-----||----------------|
A|-2-------(2)-----|-----------------|-5-------(5)-----|-----------------||----------------|
E|-----------------|-----------------|-----------------|-----------------||-------------12-|


Pre-verse [x2]
G|---------------------------|---------------------------|
D|----------------------5----|----------------------7----|
A|-2---2---2---2---2---------|-5---5---5---5---5---------| 
E|---------------------------|---------------------------| 


Verse [x2]
G|---------------------------|---------------------------|
D|--------------5---5---5----|--------------7---7---7----| 
A|-2---2---2-----------------|-5---5---5-----------------|
E|---------------------------|---------------------------|

G|---------------------------|---------------------------------|
D|--------------5---5---5----|---------5---7-------------------|
A|-2---2---2-----------------|-5---5---------------7---5---0---|
E|---------------------------|---------------------------------|


Pre-Verse [x2]
G|---------------------------|---------------------------|
D|----------------------5----|----------------------7----|
A|-2---2---2---2---2---------|-5---5---5---5---5---------|
E|---------------------------|---------------------------|


Verse [x2]
G|---------------------------|---------------------------|
D|--------------5---5---5----|--------------7---7---7----|
A|-2---2---2-----------------|-5---5---5-----------------|
E|---------------------------|---------------------------|
							
G|---------------------------|---------------------------------|
D|--------------5---5---5----|---------5---7-------------------|
A|-2---2---2-----------------|-5---5---------------7---5---0---|
E|---------------------------|---------------------------------|

		Second time: |---------------------------|
			     |--------------7---7---7----|
			     |-5---5---5-----------------|
			     |---------------------------|


Pre-Chorus [x3]
G|------------------------------|---------------------------------|
D|------------------------------|---------------------------------|
A|------------------------------|---------------------5-----------|
E|-3----3---3---3---3---3---3---|-3---3---3---3---3-----------3---|

End on:
G|---------------------------------|---------------------------------|
D|---------------------------------|---------------------------------|
A|---------------------------------|---------------------------------|
E|-3---3---3---3---3---3---3---3---|-5---5---5---5---5---5---5---5---|


Chorus [x4]
G|---------------------------------|---------------------------------|
D|---------------------------------|---------------------------------|
A|---------------------------------|-2---2---2---2---5---5---5---5---|
E|-3---3---3---3---2---2---2---2---|---------------------------------|

End on:
G|---------------------------------|--------|
D|---------------------------------|--------|
A|---------------------------------|-2------|
E|-3---3---3---3---2---2---2---2---|--------|


Bridge [x2]
G|---------------------------|--------|---------------------------|
D|---------------------------|--------|---------------------------|
A|---------------------------|--------|-5----5---6---6---6---7----|
E|-5----5---6---6---6---7----|--------|---------------------------|

Con't
G|---------------------------|---------------------------------|
D|---------------------------|---------------------------------|
A|---------------------------|---------------------------------|
E|-5----5---6---6---6---7----|-7---7---7---7---7---7---7---7---|

G|---------------------------|---------------------------------|
D|---------------------------|---------------------------------|
A|-5----5---6---6---6---7----|-7---7---7---7---7---7---7---7---|
E|---------------------------|---------------------------------|

G|---------------------------|---------------------------------|
D|---------------------------|---------------------------------|
A|---------------------------|---------------------------------|
E|-5----5---6---6---6---7----|-7---7---7---7---7---7---7---7---|

G|------------------------------|---------------------------|
D|------------------------------|---------------------------|
A|-7--------5---5---5-------2---|-2---2---2---2---2---------|
E|------------------------------|---------------------------|


Chorus [x7]
G|---------------------------------|---------------------------------|
D|---------------------------------|---------------------------------|
A|---------------------------------|-2---2---2---2---5---5---5---5---|
E|-3---3---3---3---2---2---2---2---|---------------------------------|


Outro
G|---------------------------------|---------------------------------|-----------------|
D|---------------------------------|---------------------------------|-----------------|
A|---------------------------------|-10--10--10--10--9---9---9---9---|-----------------|
E|-3---3---3---3---2---2---2---2---|---------------------------------|-7---------------|
comments
We did not receive enough feedback on this tab! Please rate:
print report bad tab
1 2 3 4 5
I want to post or [tab]
guest
You may want to rate the tab now too:
select rating
Please do not post tabs as comments. Select "correction" instead!