Oops, an error
Loading. Please wait.

Gekkou Bass

version 1
version 1

Whole song

Interactive

76 views 1 this week
no commentswrite comment
1 2 3 4 5
3 more votes to show rating
add to favorites
×
Save as Personal and add changes to this tab that will be seen only by you. Learn more ›
×
You can save this tab as Personal to edit and correct it or add notes. All changes will be seen only by you. Learn more »
save as personal
new!
launch autoscroll
font size
0
reset
guitar tuner
Autoscroll
slow
fast
+/-
esc
set tempo
stop
Asian Kung-Fu Generation - Gekkou (Moonlight)

Tabbed by: XxThreeCheersxX
E-mail: burdickash@gmail.com

Tuning: Standard

Intro I (come in around the 30 second mark) x 2
G|-----------------------------------------------------------------|
D|-----------------------------------------------------------------|
A|-----------------------------------------------------------------|
E|-5-5-5-5-5-5-5-5-5-5-5-5-5-0-5-7-5-5-5-5-5-5-5-5-5-5-0-5-7--5-0--|
                                                                           
G|------------------------------------------------------------------|
D|------------------------------------------------------------------|
A|-5-5-5-5-5-5-5-5-5-5-5-5-5-5-0-5-7-2-2-2-2-2-2-2---2-2-2-2-2-4-2--|
E|-------------------------------------------------2----------------|

Intro II x 2
G|------------------------------------------------------------------------------|
D|------------------------------------------------------------------------------|
A|----------------------------------12-12-12-12-12-12-12----12-12-12-14--12-7-7-|
E|-5-5-5-5-5-5-5-5-5-5-5-5-5-5-5/12----------------------12---------------------|
                                                                                    
G|------------------------------------------------------------------|
D|------------------------------------------------------------------|
A|-5-5-5-5-5-5-5-5-5-5-5-5-5-5-0-5-7-2-2-2-2-2-2-2---2-2-2-2-2-4-2--|
E|-------------------------------------------------2----------------|

Verse I x 2
G|-----------------------------------------------------------------|
D|-----------------------------------------------------------------|
A|---------------------------------5-5-5-5-5-5-5-5-2-2-2-2-2-2-2-2-|
E|-5-5-5-5-5-5-5-5-5-5-5-5-5-5-5-5---------------------------------|
                                                                        
G|-----------------------------------------------------------------|
D|-----------------------------------------------------------------|
A|---------------------------------5-5-5-5-5-5-5-5-2-2-2-2-2-4-2---|
E|-5-5-5-5-5-5-5-5-5-5-5-5-5-5-5-5---------------------------------|

Intro I x 1

Verse II
G|-----------------------------------------------------------------|
D|-----------------------------------------------------------------|
A|---------------------------------5-5-5-5-5-5-5-5-2-2-2-2-2-2-2-2-|
E|-5-5-5-5-5-5-5-5-5-5-5-5-5-5-5-5---------------------------------|
                                                                        
G|-----------------------------------------------------------------|
D|-----------------------------------------------------------------|
A|---------------------------------5-5-5-5-5-5-5-5-2-2-2-2-2-4-2---|
E|-5-5-5-5-5-5-5-5-5-5-5-5-5-5-5-5---------------------------------|

G|-----------------------------------------------------------------|
D|-----------------------------------------------------------------|
A|---------------------------------5-5-5-5-5-5-5-5-2-2-2-2-2-2-2-2-|
E|-5-5-5-5-5-5-5-5-5-5-5-5-5-5-5-5---------------------------------|
                                                                        
G|-----------------------------------------------------------------|
D|-----------------------------------------------------------2-----|
A|---------------------------------5-5-5-5-5-5-5-5-2-2-2-2-4---4---|
E|-5-5-5-5-5-5-5-5-5-5-5-5-5-5-5-5---------------------------------|

Pre-Chorus
G|-----------------------------------------------------------------|
D|-----------------------------------------------------------------|
A|-5-5-5-5-5-5-5-5-----------------4-4-4-4-4-4-4-4-----------------|
E|-----------------0-0-0-0-0-0-0-0-----------------2-2-2-2-2-2-2-2-|

G|-----------------------------------------------------------------|
D|-----------------------------------------------------------------|
A|-5-5-5-5-5-5-5-5-----------------4-4-4-4-4-4-4-4-----------------|
E|-----------------0-0-0-0-0-0-0-0-----------------2-2-2-2-2-2-0-0-|

G|-----------------------------------------------------------------|
D|-----------------------------------------------------------------|
A|-5-5-5-5-5-5-5-5-----------------4-4-4-4-4-4-4-4-----------------|
E|-----------------0-0-0-0-0-0-0-0-----------------2-2-2-0-2-4-5-0-|

G|----------------------------------|
D|----------------------------------|
A|-5-5-5-5-5-5-5-5-7-7-7-7-7-7-7-7/-|
E|----------------------------------|

Chorus
G|--------------------------------------------------------------------------------|
D|--------------------------------------------------------------------------------|
A|-12-12-12-12-12-12-12-12-12-12-12-12-12-12-12\--5-5-5-5-5-5-5-2-2-2-2-2-2-2-2-2-|
E|--------------------------------------------------------------------------------|

G|----------------------------------------------------------------|
D|----------------------------------------------------------------|
A|---------------------------------5-5-5-5-5-5-5-2-2-2-2-2-2-4-2--|
E|-5-5-5-5-5-5-5-5-5-5-5-5-5-5-5-5--------------------------------|

Intro II x 4

Bridge (listen to the song for a better sense of timing)                
G|------------------------------------------------------------------------------|
D|-----------------------------------------------------------------------234----|
A|-----------------------------------5-5x--0-5-7x----2-2x------2-4x--2x-----2x--|
E|-5-0-5-7x--------0-5-0-5-7x--0x----------------------------2------------------|

G|------------------------------------------------------------------------------|
D|------------------------------------------------------------------------------|
A|-----------------------------------5-5x--0-5-7x----2-2x------2--4-4--4-----4--|
E|-5-0-5-7x--------0-5-0-5-7x--0x----------------------------2-----------4-0----|

Build-up
G|-----------------------------------------------------------------|
D|-----------------------------------------------------------------|
A|-5-5-5-5-5-5-5-5-5-5-5-5-5-5-5-5-7-7-7-7-7-7-7-7-7-7-7-7-5-5-5-5-|
E|-----------------------------------------------------------------|

G|-----------------------------------------------------------------|
D|-----------------------------------------------------------------|
A|-4-4-4-4-4-4-4-4-4-4-4-4-4-4-4-4---------------------------------|
E|---------------------------------2-2-2-2-2-2-2-2-2-2-2-2-0-0-0-0-|

G|-----------------------------------------------------------------|
D|-----------------------------------------------------------------|
A|-5-5-5-5-5-5-5-5-5-5-5-5-5-5-5-5-7-7-7-7-7-7-7-7-7-7-7-7-5-5-5-5-|
E|-----------------------------------------------------------------|

G|----------------------------------------------------------------|
D|----------------------------------------------------------------|
A|-4-4-4-4-4-4-4-4-4-4-4-4-4-4-4-4-----------------9-9-9-9-7-9-7--|
E|---------------------------------2-2-2-2-2-2-2/9----------------|

Pre-Chorus Variation
G|-----------------------------------------------------------------|
D|-----------------------------------------------------------------|
A|-5-5-5-5-5-5-5-5-----------------4-4-4-4-4-4-4-4-----------------|
E|-----------------0-0-0-0-0-0-0-0-----------------2-2-2-0-2-4-5-0-|

G|-----------------------------------------------------------------|
D|-------------------------------------------------4-4-4-4-2-------|
A|-5-5-5-5-5-5-5-5-----------------4-4-4-4-4-4-4-4-------------2---|
E|-----------------0-0-0-0-0-0-0-0---------------------------0-----|

G|------------------------------------------------------------------------------------------|
D|------------------12-12-12-12-12-14-12-12-11-11-11-11-11----------------------------------|
A|-5-5-5-5-5-5-5/12----------------------------------------12-12-------------------11-12----|
E|---------------------------------------------------------------12-14-14-12-12-14-------12-|

G|----------------------------------|
D|----------------------------------|
A|-5-5-5-5-5-5-5-5-7-7-7-7-7-7-7-7/-|
E|----------------------------------|

Chorus Variation
G|--------------------------------------------------------------------------------|
D|--------------------------------------------------------------------------------|
A|-12-12-12-12-12-12-12-12-12-12-12-12-12-12-12\--5-5-5-5-5-5-5-2-2-2-2-2-2-2-2-2-|
E|--------------------------------------------------------------------------------|

G|----------------------------------------------------------------|
D|----------------------------------------------------------------|
A|---------------------------------5-5-5-5-5-5-5-2-2-2-2-2-2-4-2--|
E|-5-5-5-5-5-5-5-5-5-5-5-5-5-5-5-5--------------------------------|

G|----------------------------------------------------------------------|
D|----------------------------------------------------------------------|
A|------------------12--12-12-12-12-12--\5-5-5-5-5-5-5-2-2-2-2---2-4-2--| x 3
E|-5-5-5-5-5-5-5/12--------------------------------------------2--------|

G|-----------------------------------------------------------------|
D|-----------------------------------------------------------------|
A|-----------------9--9-9-9-7-7-7-7-5-5-5-5-5-5-5-2-2-2-2---2-4-2--|
E|-2-2-2-2-2-2-2/9----------------------------------------2--------|

Intro II variation
G|------------------------------------------------------------------------------|
D|------------------------------------------------------------------------------|
A|----------------------------------12-12-12-12-12-12-12----12-12-12-14--12-7-7-|
E|-5-5-5-5-5-5-5-5-5-5-5-5-5-5-5/12----------------------12---------------------|
                                                                                    
G|------------------------------------------------------------------|
D|------------------------------------------------------------------|
A|-5-5-5-5-5-5-5-5-5-5-5-5-5-5-0-5-7-2-2-2-2-2-2-2---2-2-2-2-2-4-2--|
E|-------------------------------------------------2----------------|

G|------------------------------------------------------------------------------|
D|------------------------------------------------------------------------------|
A|------------------12-12-12-12-12-12-12-12-0-0-0-12--12-0-0-0-12-----12-14-12\-|
E|-5-5-5-5-5-5-5/12------------------------------------------------12-----------|

G|------------------------------------------------------------------|
D|------------------------------------------------------------------|
A|-5-5-5-5-5-5-5-5-5-5-5-5-5-5-0-5-7-2-2-2-2-2-2-2---2-2-2-2-2-4-2--|
E|-------------------------------------------------2----------------|

End on:
G|--------|
D|--------|
A|--------|
E|-5~~~~~-|

Happy playing!! If you have any suggestions/corrections, comment or email me.


| /  slide up
| \  slide down
| h  hammer-on
| p  pull-off
| ~  vibrato
| +  harmonic
| x  Mute note
===============================================================================
Suggest correction
Give kudos to tab author, rate the tab!
1 2 3 4 5
comments
print report bad tab
guest
You may want to rate the tab now too:
select rating
Wanna post a correction for this tab? Suggest correction