Oops, an error
Loading. Please wait.

Haruka Kanata Tab

version 1
version 1

Whole song

112,241 views 147 this week
8 commentsread comments
1 2 3 4 5
excellent!
x 15
add to favorites
launch autoscroll
font size
0
reset
how to read this tab
guitar tuner
Autoscroll
slow
fast
+/-
esc
set tempo
stop
Help us to improve Ultimate-Guitar.com Take our survey!
×
Author
Asian Kung Fu Generation - Haruka Kanata

After seeing it tabbed wrongly i thought I'll look over existing ones and fix it up.
Tab by Furia

my email if needing help is mcrobbiegrant@gmail.com

Now get learning ^^

Gtr I (E A D G B E) - 'Left'
Gtr II (E A D G B E) - 'Right'
Gtr III (E A D G B E) - 'Overdriven'


[Intro]
 
  Gtrs I, II

e|------------||---------------|-------||
B|------------||o-9-9------9-9-|------o||
G|------------||--9-9------9-9-|-------||
D|------------||--9-9------9-9-|-------||
A|------------||o-7-7------7-7-|------o||
E|------------||---------------|-------||

  Gtr I
 
e|---------------|------------------|---------------|------------------|
B|---------------|------------------|---------------|------------------|
G|-6--6--6-6-6-4-|-(4)-4-4--4-4-4-4-|-2--2--2-2-2-2-|-(2)-2-2--2-2-----|
D|-6--6--6-6-6-4-|-(4)-4-4--4-4-4-4-|-2--2--2-2-2-2-|-(2)-2-2--2-2-----|
A|-4--4--4-4-4-2-|-(2)-2-2--2-2-2-2-|-0--0--0-0-0-0-|-(0)-0-0--0-0-----|
E|---------------|------------------|---------------|------------------|

 Gtr II

e|---------------|------------------|---------------|------------------|
B|---------------|------------------|---------------|------------------|
G|-6--6--6-6-6-8-|-(8)-8-8--8-8-8-x-|-2--2--2-------|------------------|
D|-6--6--6-6-6---|----------------x-|-2--2--2S4---4S|==6-------4-4-----|
A|-4--4--4-4-4-6-|-(6)-6-6--6-6-6-x-|-0--0--0-0---0-|--0-------0-0-----|
E|---------------|------------------|---------------|------------------|


e|-0--------|-(0)----------------------|
B|-0--------|-(0)----------------------|
G|-1--------|-(1)----------------------|
D|-2--------|-(2)----------------------|
A|-2--------|-(2)----------------------|
E|-0--------|-(0)----------------------|


e|----------|--------------------------|
B|----------|-10--10-10-10-10-10-10-10-|
G|----------|--------------------------|
D|----------|--7---7--7--7--7--7--7--7-|
A|----------|--------------------------|
E|----------|--------------------------|



e|-(0)----------------------|-(0)-----------------------|
B|-(0)----------------------|-(0)-----------------------|
G|-(1)----------------------|--2------------------------|
D|-(2)----------------------|--2------------------------|
A|-(2)----------------------|-(2)-----------------------|
E|-(0)----------------------|-(0)-----------------------|


e|--------------------------|---------------------------|
B|-11--11-11-11-11-11-11-11-|-10--10-10-10-10-10-10-10--|
G|--------------------------|---------------------------|
D|--8---8--8--8--8--8--8--8-|--7---7--7--7--7--7--7--7--|
A|--------------------------|---------------------------|
E|--------------------------|---------------------------|


e|---------------|------------------|---------------|------------------||
B|---------------|------------------|---------------|------------------||
G|-6--6--6-6-6-4-|-(4)-4-4--4-4-4-4-|-2--2--2-2-2-2-|-(2)-2-2--2-2-----||
D|-6--6--6-6-6-4-|-(4)-4-4--4-4-4-4-|-2--2--2-2-2-2-|-(2)-2-2--2-2-----||
A|-4--4--4-4-4-2-|-(2)-2-2--2-2-2-2-|-0--0--0-0-0-0-|-(0)-0-0--0-0-----||
E|---------------|------------------|---------------|------------------||


e|---------------|------------------|---------------|------------------||
B|---------------|------------------|---------------|------------------||
G|-6--6--6-6-6-8-|-(8)-8-8--8-8-8-x-|-2--2--2-------|------------------||
D|-6--6--6-6-6---|----------------x-|-2--2--2S4---4S|==6-------4-4-----||
A|-4--4--4-4-4-6-|-(6)-6-6--6-6-6-x-|-0--0--0-0---0-|--0-------0-0-----||
E|---------------|------------------|---------------|------------------||


[Verse]
    
    PM---------------------------------------------------

e||--------------------------|---------------------------|
B||o-------------------------|---------------------------|
G||--------------------------|---------------------------|
D||--------------------------|---------------------------|
A||o-------------------------|---------------------------|
E||--0-0-0-0-0-0-0-0-0-0-0-0-|--0--0-0-0-0-0-0-0-0-0-0-0-|


e||--------------------------|---------------------------|
B||o-0-----------------------|-(0)-----------------------|
G||--1-----------------------|-(1)-----------------------|
D||--2-----------------------|-(2)-----------------------|
A||o-2-----------------------|-(2)-----------------------|
E||--0-----------------------|-(0)-----------------------|

 -----------------------------------------------------|

e|---------------------------|----------------------------|
B|---------------------------|----------------------------|
G|---------------------------|----------------------------|
D|---------------------------|----------------------------|
A|---------------------------|----------------------------|
E|--0--0-0-0-0-0-0-0-0-0-0-0-|--0--0-0-0-0-0-0-0-0-0-0-0--|


e|---------------------------|----------------------------|
B|-(0)-----------------------|-(0)------------------------|
G|-(1)-----------------------|-(1)------------------------|
D|-(2)-----------------------|-(2)------------------------|
A|-(2)-----------------------|-(2)------------------------|
E|-(0)-----------------------|-(0)------------------------|


e|--------------|---------------|---------------|--------------------||
B|--------------|---------------|---------------|-------------------o||
G|-6--6--6-6-6--|-4--4--4-4-4---|-2--2--2-2-2-2-|-(2)-2-2--2-2-2-----||
D|-6--6--6-6-6--|-4--4--4-4-4---|-2--2--2-2-2-2-|-(2)-2-2--2-2-2-----||
A|-4--4--4-4-4--|-2--2--2-2-2---|-0--0--0-0-0-0-|-(0)-0-0--0-0-0----o||
E|--------------|---------------|---------------|--------------------||


e|--------------|---------------|---------------|--------------------||
B|--------------|---------------|---------------|-------------------o||
G|-6--6--6-6-6--|-8--8--8-8-8-x-|-2--2--2-------|--------------------||
D|-6--6--6-6-6--|-------------x-|-2--2--2S4---4S|==6-------6S4-4-4---||
A|-4--4--4-4-4--|-6--6--6-6-6-x-|-0--0--0-0---0-|--0-------0-0-0-0--o||
E|--------------|---------------|---------------|--------------------||


[Interlude]

  Gtrs I, II

e|-----------------|-----------------|-----------------|------------------|
B|-----------------|-----------------|-----------------|------------------|
G|-6---6---6---6---|-6---6---6---6---|-----------------|------------------|
D|-6---6---6---6---|-6---6---6---6---|-6---6---6---6---|-6---6---6---6----|
A|-4---4---4---4---|-4---4---4---4---|-6---6---6---6---|-6---6---6---6----|
E|-----------------|-----------------|-4---4---4---4---|-4---4---4---4----|

| Gtr III

e|-----7-7-9-9-----|-7-7-9-9-----7-7-|-----7-7-9-9-----|-7-7-9-9-----7-7--|
B|-9-9---------9-9-|---------9-9-----|-9-9---------9-9-|---------9-9------|
G|-----------------|-----------------|-----------------|------------------|
D|-----------------|-----------------|-----------------|------------------|
A|-----------------|-----------------|-----------------|------------------|
E|-----------------|-----------------|-----------------|------------------|


e|-----------------|-----------------|-----------------|------------------|
B|-----------------|-----------------|-----------------|------------------|
G|-----------------|-----------------|-9---9---9---9---|-9---9---8---8----|
D|-7---7---7---7---|-7---7---7---7---|-9---9---9---9---|-9---9---8---8----|
A|-7---7---7---7---|-7---7---7---7---|-7---7---7---7---|-7---7---6---6----|
E|-5---5---5---5---|-5---5---5---5---|-----------------|------------------|


e|-----7-7-9-9-----|-7-7-9-9-----7-7-|-----7-7-9-9-----|-7-7-9-9-----7-7--|
B|-9-9---------9-9-|---------9-9-----|-9-9---------9-9-|---------9-9------|
G|-----------------|-----------------|-----------------|------------------|
D|-----------------|-----------------|-----------------|------------------|
A|-----------------|-----------------|-----------------|------------------|
E|-----------------|-----------------|-----------------|------------------|


e|-----------------|-----------------|-----------------|------------------|
B|-----------------|-----------------|-----------------|------------------|
G|-6---6---6---6---|-6---6---6---6---|-----------------|------------------|
D|-6---6---6---6---|-6---6---6---6---|-6---6---6---6---|-6---6---6---6----|
A|-4---4---4---4---|-4---4---4---4---|-6---6---6---6---|-6---6---6---6----|
E|-----------------|-----------------|-4---4---4---4---|-4---4---4---4----|


e|-----7-7-9-9-----|-7-7-9-9-----7-7-|-----7-7-9-9-----|-7-7-9-9-----7-7--|
B|-9-9---------9-9-|---------9-9-----|-9-9---------9-9-|---------9-9------|
G|-----------------|-----------------|-----------------|------------------|
D|-----------------|-----------------|-----------------|------------------|
A|-----------------|-----------------|-----------------|------------------|
E|-----------------|-----------------|-----------------|------------------|


e|--------------|----------------|--------------|-----------------||
B|--------------|----------------|--------------|-----------------||
G|--------------|----------------|--------------|-----------------||
D|-7----6----7--|-(7)-6----7--6--|-7----6----7--|-(7)-6----7--6---||
A|-7----6----7--|-(7)-6----7--6--|-7----6----7--|-(7)-6----7--6---||
E|-5----4----5--|-(5)-4----5--4--|-5----4----5--|-(5)-4----5--4---||


[Pre-Chorus]

  Gtr I

e|-----------------|----------------------|
B|-----------------|----------------------|
G|-----------------|----------------------|
D|---------9-9-9-9-|-11--11-11-11---------|
A|-2-2-2-2-7-7-7-7-|--9---9--9--9-7-7-7-7-|
E|-0-0-0-0---------|--------------5-5-5-5-|

| Gtr II

e|-----------------|----------------------|
B|-----------------|----------------------|
G|-----------------|----------------------|
D|-2---------------|-(2)------------------|
A|-2---------------|-(2)------------------|
E|-0---------------|-(0)------------------|


e|-------------------|-----------------------||
B|-------------------|-----------------------||
G|-------------------|-----------------------||
D|-----------9-9-9-9-|-11--11-11-11----------||
A|--2--2-2-2-7-7-7-7-|--9---9--9--9-7-7-7-7--||
E|--0--0-0-0---------|--------------5-5-5-5--||


e|-------------------|-----------------------||
B|-------------------|-----------------------||
G|-------------------|-----------------------||
D|-(2)---------------|-(2)-------------------||
A|-(2)---------------|-(2)-------------------||
E|-(0)---------------|-(0)-------------------||


[Chorus]

e|---------------|------------------|----------------|------------------|
B|---------------|------------------|----------------|------------------|
G|-9--9--9-9-9-9-|-(9)-9-9--9-9-9---|----------------|------------------|
D|-9--9--9-9-9-9-|-(9)-9-9--9-9-9---|--9--9--9-9-9-9-|-(9)-9-9--9-9-9---|
A|-7--7--7-7-7-7-|-(7)-7-7--7-7-7---|--9--9--9-9-9-9-|-(9)-9-9--9-9-9---|
E|---------------|------------------|--7--7--7-7-7-7-|-(7)-7-7--7-7-7---|


e|---------------|------------------|----------------|------------------|
B|---------------|------------------|----------------|------------------|
G|-9--9--9-9-9-9-|-(9)-9-9--9-9-9-x-|-11--8--8-8-8-8-|-(8)-8-8--8-8-8---|
D|---------------|----------------x-|----------------|------------------|
A|-7--7--7-7-7-7-|-(7)-7-7--7-7-7-x-|--9--6--6-6-6-6-|-(6)-6-6--6-6-6---|
E|---------------|------------------|----------------|------------------|



e|---------------------|---------------|---------------|----------------|
B|---------------------|---------------|---------------|----------------|
G|---------------------|---------------|---------------|----------------|
D|-11--11-11-11-11-11--|-9--9-9-9-9-9--|-7----6-7----6-|-7-6-7-6-7--9---|
A|-11--11-11-11-11-11--|-9--9-9-9-9-9--|-7----6-7----6-|-7-6-7-6-7--9---|
E|--9---9--9--9--9--9--|-7--7-7-7-7-7--|-5----4-5----4-|-5-4-5-4-5--7---|


e|---------------------|---------------|---------------|----------------|
B|---------------------|---------------|---------------|----------------|
G|--9---9--9--9--9--9--|-8--8-8-8-8-8--|---------------|----------------|
D|---------------------|---------------|-7----6-7----6-|-7-6-7-6-7--9---|
A|--7---7--7--7--7--7--|-6--6-6-6-6-6--|-7----6-7----6-|-7-6-7-6-7--9---|
E|---------------------|---------------|-5----4-5----4-|-5-4-5-4-5--7---|



e|---------------|------------------|
B|---------------|------------------|
G|-9--9--9-9-9-9-|-(9)-9-9--9-9-9---|
D|-9--9--9-9-9-9-|-(9)-9-9--9-9-9---|
A|-7--7--7-7-7-7-|-(7)-7-7--7-7-7---|
E|---------------|------------------|


e|---------------|------------------|
B|---------------|------------------|
G|-9--9--9-9-9-9-|-(9)-9-9--9-9-9-x-|
D|---------------|----------------x-|
A|-7--7--7-7-7-7-|-(7)-7-7--7-7-7-x-|
E|---------------|------------------|



e|---------------------|------------------------|
B|---------------------|------------------------|
G|---------------------|------------------------|
D|--9---9---9--9--9--9-|--(9)--9--9---9--9--9---|
A|--9---9---9--9--9--9-|--(9)--9--9---9--9--9---|
E|--7---7---7--7--7--7-|--(7)--7--7---7--7--7---|


e|---------------------|------------------------|
B|---------------------|------------------------|
G|-11--11--11-11-11-11-|-(11)-11-11--11-11-11---|
D|---------------------|------------------------|
A|--9---9---9--9--9--9-|--(9)--9--9---9--9--9---|
E|---------------------|------------------------|



e|---------------------|---------------|---------------|----------------||
B|---------------------|---------------|---------------|----------------||
G|---------------------|---------------|---------------|----------------||
D|-11--11-11-11-11-11--|-9--9-9-9-9-9--|-7----6-7----6-|-7-6-7-6-7--9---||
A|-11--11-11-11-11-11--|-9--9-9-9-9-9--|-7----6-7----6-|-7-6-7-6-7--9---||
E|--9---9--9--9--9--9--|-7--7-7-7-7-7--|-5----4-5----4-|-5-4-5-4-5--7---||


e|---------------------|---------------|---------------|----------------||
B|---------------------|---------------|---------------|----------------||
G|-13S==9--9--9--9--9--|-8--8-8-8-8-8--|---------------|----------------||
D|---------------------|---------------|-7----6-7----6-|-7-6-7-6-7--9---||
A|-11S==7--7--7--7--7--|-6--6-6-6-6-6--|-7----6-7----6-|-7-6-7-6-7--9---||
E|---------------------|---------------|-5----4-5----4-|-5-4-5-4-5--7---||


[Bridge]

  Gtrs I, II

e|-------------|----------|--------------|------||
B|-9\----------|----------|-9-9------9-9-|------||
G|-9\----------|----------|-9-9------9-9-|------||
D|-9\----------|----------|-9-9------9-9-|------||
A|-7\----------|----------|-7-7------7-7-|------||
E|-------------|----------|--------------|------||


[Verse]
  
  Gtr I
    PM---------------------------------------------------

e||--------------------------|---------------------------|
B||o-------------------------|---------------------------|
G||--------------------------|---------------------------|
D||--------------------------|---------------------------|
A||o-------------------------|---------------------------|
E||--0-0-0-0-0-0-0-0-0-0-0-0-|--0--0-0-0-0-0-0-0-0-0-0-0-|

|   Gtr II

e||--------------------------|---------------------------|
B||o-0-----------------------|-(0)-----------------------|
G||--1-----------------------|-(1)-----------------------|
D||--2-----------------------|-(2)-----------------------|
A||o-2-----------------------|-(2)-----------------------|
E||--0-----------------------|-(0)-----------------------|


 -----------------------------------------------------|

e|---------------------------|----------------------------|
B|---------------------------|----------------------------|
G|---------------------------|----------------------------|
D|---------------------------|----------------------------|
A|---------------------------|----------------------------|
E|--0--0-0-0-0-0-0-0-0-0-0-0-|--0--0-0-0-0-0-0-0-0-0-0-0--|


e|---------------------------|----------------------------|
B|-(0)-----------------------|-(0)------------------------|
G|-(1)-----------------------|-(1)------------------------|
D|-(2)-----------------------|-(2)------------------------|
A|-(2)-----------------------|-(2)------------------------|
E|-(0)-----------------------|-(0)------------------------|


e|--------------|---------------|---------------|
B|--------------|---------------|---------------|
G|-6--6--6-6-6--|-4--4--4-4-4---|-2--2--2-2-2-2-|
D|-6--6--6-6-6--|-4--4--4-4-4---|-2--2--2-2-2-2-|
A|-4--4--4-4-4--|-2--2--2-2-2---|-0--0--0-0-0-0-|
E|--------------|---------------|---------------|


e|--------------|---------------|---------------|
B|--------------|---------------|---------------|
G|-6--6--6-6-6--|-8--8--8-8-8-x-|-2--2--2-------|
D|-6--6--6-6-6--|-------------x-|-2--2--2S4---4S|
A|-4--4--4-4-4--|-6--6--6-6-6-x-|-0--0--0-0---0-|
E|--------------|---------------|---------------|


e|------------------||-------------------|
B|-----------------o||-------------------|
G|-(2)-2-2--2-------||-(2)-2-2--2-2-2----|
D|-(2)-2-2--2-------||-(2)-2-2--2-2-2----|
A|-(0)-0-0--0------o||-(0)-0-0--0-0-0----|
E|------------------||-------------------|


e|------------------||-------------------|
B|-----------------o||-------------------|
G|------------------||-------------------|
D|--6-------6-------||-/6-------6S4-4-4--|
A|--0-------0------o||--0-------0-0-0-0--|
E|------------------||-------------------|


e|---------------------|---------------|-------------|--------------|
B|---------------------|---------------|-------------|--------------|
G|---------------------|---------------|-------------|-------2-4-6--|
D|-11--11-11-11-11-11--|-9--9-9-9-9-9--|-7-6-2-7-6-2-|-7-6-2-2-4-6--|
A|-11--11-11-11-11-11--|-9--9-9-9-9-9--|-7-6-2-7-6-2-|-7-6-2-0-2-4--|
E|--9---9--9--9--9--9--|-7--7-7-7-7-7--|-5-4-0-5-4-0-|-5-4-0--------|


e|---------------------|---------------|-------------|--------------|
B|---------------------|---------------|-------------|--------------|
G|-13S==9--9--9--9--9--|-8--8-8-8-8-8--|-------------|-------2-4-6--|
D|---------------------|---------------|-7-6-2-7-6-2-|-7-6-2-2-4-6--|
A|-11S==7--7--7--7--7--|-6--6-6-6-6-6--|-7-6-2-7-6-2-|-7-6-2-0-2-4--|
E|---------------------|---------------|-5-4-0-5-4-0-|-5-4-0--------|


[Interlude]

e|-----0-------|-------0----------|
B|-0--(0)------|------------0-----|
G|-1--(1)------|------------------|
D|-2--(2)------|-(2)--(2)--(2)----|
A|-2--(2)------|-(2)--(2)--(2)----|
E|-0--(0)------|-(0)--(0)--(0)----|


e|-------------|------------------|
B|-0-----------|-(0)--------------|
G|-1-----------|-(1)--------------|
D|-2-----------|-(2)--------------|
A|-2-----------|-(2)--------------|
E|-0-----------|-(0)--------------|


e|---------------------|---------------------|
B|---------------------|---------------------|
G|-6-6-6-6-6-6-6-6-6-6-|-4-4-4-4-4-4-4-4-4-4-|
D|-6-6-6-6-6-6-6-6-6-6-|-4-4-4-4-4-4-4-4-4-4-|
A|-4-4-4-4-4-4-4-4-4-4-|-2-2-2-2-2-2-2-2-2-2-|
E|---------------------|---------------------|


e|---------------------|---------------------|
B|---------------------|---------------------|
G|-6-6-6-6-6-6-6-6-6-6-|-4-4-4-4-4-4-4-4-4-4-|
D|-6-6-6-6-6-6-6-6-6-6-|-4-4-4-4-4-4-4-4-4-4-|
A|-4-4-4-4-4-4-4-4-4-4-|-2-2-2-2-2-2-2-2-2-2-|
E|---------------------|---------------------|


e|-------------------|-------------------------|
B|-------------------|-------------------------|
G|--2--2--2--2--2--2-|--2--2-2--2-2--2--2--2---|
D|--2--2--2--2--2--2-|--2--2-2--2-2--2--2--2---|
A|--0--0--0--0--0--0-|--0--0-0--0-0--0--0--0---|
E|-------------------|-------------------------|


e|-------------------|-------------------------|
B|-------------------|-------------------------|
G|-13-13-13-13-13-13-|-11-11---11---11-11-11---|
D|-------------------|-------------------------|
A|-11-11-11-11-11-11-|--9--9----9----9--9--9---|
E|-------------------|-------------------------|


  Gtr I

e|-----0-------|-------0----------|
B|-0--(0)------|------------0-----|
G|-1--(1)------|------------------|
D|-2--(2)------|-(2)--(2)--(2)----|
A|-2--(2)------|-(2)--(2)--(2)----|
E|-0--(0)------|-(0)--(0)--(0)----|

| Gtr II

e|-------------|------------------|
B|-0-----------|------------------|
G|-1-----------|------------------|
D|-2-----------|-(2)--------------|
A|-2-----------|-(2)--------------|
E|-0-----------|-(0)--------------|


e|---------------------|---------------------|
B|---------------------|---------------------|
G|-6-6-6-6-6-6-6-6-6-6-|-4-4-4-4-4-4-4-4-4-4-|
D|-6-6-6-6-6-6-6-6-6-6-|-4-4-4-4-4-4-4-4-4-4-|
A|-4-4-4-4-4-4-4-4-4-4-|-2-2-2-2-2-2-2-2-2-2-|
E|---------------------|---------------------|


e|---------------------|---------------------|
B|---------------------|---------------------|
G|-6-6-6-6-6-6-6-6-6-6-|-4-4-4-4-4-4-4-4-4-4-|
D|-6-6-6-6-6-6-6-6-6-6-|-4-4-4-4-4-4-4-4-4-4-|
A|-4-4-4-4-4-4-4-4-4-4-|-2-2-2-2-2-2-2-2-2-2-|
E|---------------------|---------------------|


e|-------------------|-------------------------|
B|-------------------|-------------------------|
G|-------------------|-------------------------|
D|--7--7--7--7--7--7-|--7--7-7--7-7--7--7--7---|
A|--7--7--7--7--7--7-|--7--7-7--7-7--7--7--7---|
E|--5--5--5--5--5--5-|--5--5-5--5-5--5--5--5---|


e|-------------------|-------------------------|
B|-------------------|-------------------------|
G|-13-13-13-13-13-13-|-14-14---14---14-14-14---|
D|-------------------|-------------------------|
A|-11-11-11-11-11-11-|-12-12---12---12-12-12---|
E|-------------------|-------------------------|


[Verse]

  Gtrs I, II

e|-----4-------4---|-----------------|
B|-----4-------4---|-----------------|
G|-----5-------5---|-(6)--6--(6)--6--|
D|-6--(6)--6--(6)--|--6---6---6---6--|
A|-6--(6)--6--(6)--|--4---4---4---4--|
E|-4--(4)--4--(4)--|-----------------|


 Gtr III
e|-----------------|-----------------|
B|-----------------|-----------------|
G|-----------------|-----------------|
D|-----------------|-----------------|
A|-----------------|-----------------|
E|-----------------|-----------------|



e|-----------------|--------------5---5---5--|
B|-----5-------5---|------7-------5---5---5--|
G|-----6-------6---|------8-------6---6---6--|
D|-7--(7)--7--(7)--|-9---(9)--7--(7)-(7)-(7)-|
A|-7--(7)--7--(7)--|-9---(9)--7--(7)-(7)-(7)-|
E|-5--(5)--5--(5)--|-7---(7)--5--(5)-(5)-(5)-|


e|-----------------|-------------------------|
B|-----------------|-------------------------|
G|-----------------|-------------14--14--14--|
D|-----------------|-------------------------|
A|-----------------|-------------12--12--12--|
E|-----------------|-------------------------|


  Gtr I

e|------4-------4---|----------------|
B|------4-------4---|----------------|
G|------5-------5---|------6------6--|
D|--6--(6)--6--(6)--|--6---6---6--6--|
A|--6--(6)--6--(6)--|--4---4---4--4--|
E|--4--(4)--4--(4)--|----------------|

| Gtr II

e|------4-------4---|----------------|
B|------4-------4---|----------------|
G|------5-------5---|------6------6--|
D|--6--(6)--6--(6)--|--6---6---6--6--|
A|--6--(6)--6--(6)--|--4---4---4--4--|
E|--4--(4)--4--(4)--|----------------|

| Gtr III

e|------------------|----------------|
B|------------------|----------------|
G|-14--13-----------|-14--13--11--9--|
D|------------------|----------------|
A|-12--11-----------|-12--11---9--7--|
E|------------------|----------------|


                                        PM--------|

e|-------------------------------------|-----------------------5--5--5---|
B|-------------------------------------|-----------------5--5--5--5--5---|
G|--6-x---x--6-x---x--6-x---x--6-x---x-|-----------6--6--6--6--6--6--6---|
D|--7-x---x--7-x---x--7-x---x--7-x---x-|---------7-7--7--7--7--7--7--7---|
A|--7-x---x--7-x---x--7-x---x--7-x---x-|-7-7-7-7-7-7--7--7--7--7--7--5---|
E|--5-x---x--5-x---x--5-x---x--5-x---x-|-5-5-5-5-5-5--5--5--5--5--5--5---|

|                                      PM--------|

e|-------------------------------------|-----------------------5--5--5---|
B|-------------------------------------|-----------------5--5--5--5--5---|
G|--6-x---x--6-x---x--6-x---x--6-------|-----------6--6--6--6--6--6--6---|
D|--7-x---x--7-x---x--7-x---x--7-------|---------7-7--7--7--7--7--7--7---|
A|--7-x---x--7-x---x--7-x---x--7-------|-7-7-7-7-7-7--7--7--7--7--7--5---|
E|--5-x---x--5-x---x--5-x---x--5-0---0-|-5-5-5-5-5-5--5--5--5--5--5--5---|


e|-------------------------------------|---------------------------------|
B|-------------------------------------|---------------------------------|
G|-14-------14-------14-------14-------|-------------14-14-14-14-14-14---|
D|-------------------------------------|---------------------------------|
A|-12-------12-------12-------12-------|-------------12-12-12-12-12-12---|
E|-------------------------------------|---------------------------------|



e|------0---(0)----|-------------|------------|-------------|
B|--0--(0)---0-----|--(0)--------|------------|-------------|
G|--1--(1)--(1)----|--(1)--------|------------|-------------|
D|--2--(2)--(2)----|--(2)--------|------------|-------------|
A|--2--(2)--(2)----|--(2)--------|------------|-------------|
E|--0--(0)--(0)----|--(0)--------|--0---------|-(0)---------|


e|-----------------|-------------|------------|-------------|
B|--0--------------|--(0)--------|-(0)--------|-(0)---------|
G|--1--------------|--(1)--------|-(1)--------|-(1)---------|
D|--2--------------|--(2)--------|-(2)--------|-(2)---------|
A|--2--------------|--(2)--------|-(2)--------|-(2)---------|
E|--0--------------|--(0)--------|-(0)--------|-(0)---------|


e|-----------------|-------------|------------|-------------|
B|-----------------|-------------|------------|-------------|
G|-13--------------|-(13)--------|------------|-------------|
D|-----------------|-------------|------------|-------------|
A|-11--------------|-(11)--------|------------|-------------|
E|-----------------|-------------|------------|-------------|


[Outro]

e|-------------------------|-------------|
B|-------------------------|-------------|
G|-6-6-6-6-6-6-4-4-4-4-4-4-|-2-----------|
D|-6-6-6-6-6-6-4-4-4-4-4-4-|-2-----------|
A|-4-4-4-4-4-4-2-2-2-2-2-2-|-0-----------|
E|-------------------------|-------------|


e|-------------------------|-------------|
B|-------------------------|-------------|
G|-6-6-6-6-6-6-8-8-8-8-8-8-|-9-----------|
D|-6-6-6-6-6-6-------------|-------------|
A|-4-4-4-4-4-4-6-6-6-6-6-6-|-7-----------|
E|-------------------------|-------------|



************************************

| x    Dead note
| (n)  Ghost note
| /    Slide up
| \    Slide down   
| =    Hold
| PM   Palm mute
| S    Shift slide

************************************
Suggest correction
What's this?
You can suggest a correction to this tab. Community and Mods will review your correction and vote to approve or reject it.
comments
print report bad tab
8 comments total. Showing first comments.
+2 reply
Phildo64 90 wrote on February 17 2006, 09:06 am

I really like it when people put J-Rock tabs on here...cuz when i look and i find it im like "nice!" this is awesome! Good job! AKFG OWNS!

+2 reply
Naruto_x 18 wrote on December 7 2006, 12:55 am

Good job dude. Only thing.... Cut out some of the bulk by just telling us how many times to repeat a riff other than typing it out. It uses a lot of paper. Excellent job though dude. A+ ^_^

+1 reply
guitargurl317 99 wrote on February 15 2008, 03:32 pm

I am Officially in luv w/ u!! I luv this song. AKFG is da shizznit. this is awesome!!!

guest
You may want to rate the tab now too:
select rating
Please do not post tabs as comments. Select "correction" instead!