Oops, an error
Loading. Please wait.

Haruka Kanata Tab

version 2
version 2

Whole song

2,788 views 27 this week
no commentswrite comment
1 2 3 4 5
please rate
add to favorites
launch autoscroll
font size
0
reset
how to read this tab
guitar tuner
Autoscroll
slow
fast
+/-
esc
set tempo
stop
Help us to improve Ultimate-Guitar.com Take our survey!
×
Difficulty
novice
I found a really good tab, but it was extremely difficult to understand, so I made this
one with parts and an order for Guitars I and II at the bottom. Couldn't get any simpler
than this, enjoy. (Credits to Furia for some of the tabs and ChrisX709 of Youtube for 
basic helpful hand formations)

Standard Tuning on both guitars

Tabbed by anonymous (With help from Furia and ChrisX709 of Youtube)

A. (Intro)
|------------||---------------|-------||
|------------||o-9-9------9-9-|------o||
|------------||--9-9------9-9-|-------||
|------------||--9-9------9-9-|-------||
|------------||o-7-7------7-7-|------o||
|------------||---------------|-------||

B. (Chorus I)
|---------------|------------------|---------------|------------------|
|---------------|------------------|---------------|------------------|
|-6--6--6-6-6-4-|-(4)-4-4--4-4-4-4-|-2--2--2-2-2-2-|-(2)-2-2--2-2-----|
|-6--6--6-6-6-4-|-(4)-4-4--4-4-4-4-|-2--2--2-2-2-2-|-(2)-2-2--2-2-----|
|-4--4--4-4-4-2-|-(2)-2-2--2-2-2-2-|-0--0--0-0-0-0-|-(0)-0-0--0-0-----|
|---------------|------------------|---------------|------------------|

C. (Verse I)
||--------------------------|---------------------------|
||o-------------------------|---------------------------|
||--------------------------|---------------------------|
||--------------------------|---------------------------|
||o-------------------------|---------------------------|
||--0-0-0-0-0-0-0-0-0-0-0-0-|--0--0-0-0-0-0-0-0-0-0-0-0-|

D. (Verse II)
|--------------|---------------------|---------------|--------------|
|--------------|---------------------|---------------|--------------|
|-6-6-6-6-6-6-6|-6-6-6---------------|---------------|--------------|
|-6-6-6-6-6-6-6|-6-6-6--6-6-6-6-6-6-6|-6-6-6--7-7-7-7|7-7-7-7-7-7---|
|-4-4-4-4-4-4-4|-4-4-4--6-6-6-6-6-6-6|-6-6-6--7-7-7-7|7-7-7-7-7-7---|
|--------------|--------4-4-4-4-4-4-4|-4-4-4--5-5-5-5|5-5-5-5-5-5---|

|---------------|-------|
|-9-9-9-9-9-9--8|-8-8-8-|
|-9-9-9-9-9-9--8|-8-8-8-|
|-9-9-9-9-9-9--8|-8-6-6-|
|-7-7-7-7-7-7--6|-6-6-6-|
|---------------|-------|

|--------------|---------------------|---------------|----------------|
|--------------|---------------------|---------------|----------------|
|-6-6-6-6-6-6-6|-6-6-6---------------|---------------|----------------|
|-6-6-6-6-6-6-6|-6-6-6--6-6-6-6-6-6-6|-6-6-6--7-6-7-6|7-6-7-6-7-6-7-6-|
|-4-4-4-4-4-4-4|-4-4-4--6-6-6-6-6-6-6|-6-6-6--7-6-7-6|7-6-7-6-7-6-7-6-|
|--------------|--------4-4-4-4-4-4-4|-4-4-4--5-4-5-4|5-4-5-4-5-4-5-4-|

E. (Pre-Chorus)
|-----------------|----------------------|
|-----------------|----------------------|
|-----------------|----------------------|
|---------9-9-9-9-|-11--11-11-11---------|
|-7-7-7-7-7-7-7-7-|--9---9--9--9-7-7-7-7-|
|-0-0-0-0---------|--------------5-5-5-5-|

F. (Chorus)
|-------------|-----------------|----------------|------------------|
|-------------|-----------------|----------------|------------------|
|-9-9-9-9-9-9-|-(9)-9-9-9-9-9---|----------------|------------------|
|-9-9-9-9-9-9-|-(9)-9-9-9-9-9---|--9-9-9-9-9-9---|-(9)-9-9-9-9-9----|
|-7-7-7-7-7-7-|-(7)-7-7-7-7-7---|--9-9-9-9-9-9---|-(9)-9-9-9-9-9----|
|-------------|-----------------|--7-7-7-7-7-7---|-(7)-7-7-7-7-7----|

|--------------------|--------------|--------------|
|--------------------|--------------|--------------|
|--------------------|--------------|--------------|
|-11-11-11-11-11-11--|-9-9-9-9-9-9--|-7-7-7-7-7-7--|
|-11-11-11-11-11-11--|-9-9-9-9-9-9--|-7-7-7-7-7-7--|
|--9--9--9--9--9--9--|-7-7-7-7-7-7--|-5-5-5-5-5-5--|

|-------------|-----------------|----------------|------------------|
|-------------|-----------------|----------------|------------------|
|-9-9-9-9-9-9-|-(9)-9-9-9-9-9---|----------------|------------------|
|-9-9-9-9-9-9-|-(9)-9-9-9-9-9---|--9-9-9-9-9-9---|-(9)-9-9-9-9-9----|
|-7-7-7-7-7-7-|-(7)-7-7-7-7-7---|--9-9-9-9-9-9---|-(9)-9-9-9-9-9----|
|-------------|-----------------|--7-7-7-7-7-7---|-(7)-7-7-7-7-7----|

|--------------------|--------------|-----------------|
|--------------------|--------------|-----------------|
|--------------------|--------------|--------------(9)|
|-11-11-11-11-11-11--|-9-9-9-9-9-9--|-7-7-7-7-7-7--(9)|
|-11-11-11-11-11-11--|-9-9-9-9-9-9--|-7-7-7-7-7-7--(7)|
|--9--9--9--9--9--9--|-7-7-7-7-7-7--|-5-5-5-5-5-5-----|

G. (Pre-Bridge)
|-------------------------|
|-------------------------|
|-7-6-6-7-6-6-7-6-6-7-6-6-|
|-7-6-6-7-6-6-7-6-6-7-6-6-|
|-7-6-6-7-6-6-7-6-6-7-6-6-|
|-5-4-0-5-4-0-5-4-0-5-4-0-|

H. (Bridge)
|---------------|------------------|---------------|------------------|
|---------------|------------------|---------------|------------------|
|-6--6--6-6-6-4-|-(4)-4-4--4-4-4-4-|-2--2--2-2-2-2-|-(2)-2-2--2-2-----|
|-6--6--6-6-6-4-|-(4)-4-4--4-4-4-4-|-2--2--2-2-2-2-|-(2)-2-2--2-2-----|
|-4--4--4-4-4-2-|-(2)-2-2--2-2-2-2-|-0--0--0-0-0-0-|-(0)-0-0--0-0-----|
|---------------|------------------|---------------|------------------|(x2)

|-------------------------------------|
|-------------------------------------|
|----------6-6-6-6--------------------|
|-6-6-6-6--6-6-6-6--7-7-7-7--9-9-9-9--|
|-6-6-6-6--4-4-4-4--7-7-7-7--9-9-9-9--|
|-4-4-4-4-----------5-5-5-5--7-7-7-7--|

|--------------------------|
|--------------------------|
|-7-6-6-7-6-6-7-6-6-7-6-6-9|
|-7-6-6-7-6-6-7-6-6-7-6-6-9|
|-7-6-6-7-6-6-7-6-6-7-6-6-7|
|-5-4-0-5-4-0-5-4-0-5-4-0--|

I. (Outro I)
|---------------|------------------|---------------|
|---------------|------------------|---------------|
|-6--6--6-6-6-4-|-(4)-4-4--4-4-4-4-|-2-------------|
|-6--6--6-6-6-4-|-(4)-4-4--4-4-4-4-|-2-------------|
|-4--4--4-4-4-2-|-(2)-2-2--2-2-2-2-|-0-------------|
|---------------|------------------|---------------|

J. (Chorus II P.1)
|---------------------------------|--------------------------------|
|---------------------------------|--------------------------------|
|-6-6-6-6-6--8-8-8-8-8--9-9-9-9-9-|-11-11-11-11-11--13-13-13-13-13-|
|-6-6-6-6-6--8-8-8-8-8--9-9-9-9-9-|-11-11-11-11-11--13-13-13-13-13-|
|-4-4-4-4-4--6-6-6-6-6--7-7-7-7-7-|--9--9--9--9--9--11-13-13-13-13-|
|---------------------------------|--------------------------------|

|-----------|
|--10/11\10-|
|-----------|
|----7/8\7--|
|-----------|
|-----------|

K. (Chorus II P.2)
|---------------------------------|--------------------------------|
|---------------------------------|--------------------------------|
|-6-6-6-6-6--8-8-8-8-8--9-9-9-9-9-|-11-11-11-11-11--13-13-13-13-13-|
|-6-6-6-6-6--8-8-8-8-8--9-9-9-9-9-|-11-11-11-11-11--13-13-13-13-13-|
|-4-4-4-4-4--6-6-6-6-6--7-7-7-7-7-|--9--9--9--9--9--11-13-13-13-13-|
|---------------------------------|--------------------------------|

L. (Outro II)
|---------------|------------------|---------------|
|---------------|------------------|---------------|
|-6--6--6-6-6-8-|-(8)-8-8--8-8-8-8-|-9-------------|
|-6--6--6-6-6-8-|-(8)-8-8--8-8-8-8-|-9-------------|
|-4--4--4-4-4-6-|-(6)-6-6--6-6-6-6-|-7-------------|
|---------------|------------------|---------------|

Order:
Guitar I: A-B-B-C-B-C-B-D-E-F-A(1/2)-C-B-C-B-D-E-F-G-H-I|
Guitar II: -J-K---K---K----------------K---K-----------L|
Suggest correction
Give kudos to tab author, rate the tab!
1 2 3 4 5
comments
print report bad tab
guest
You may want to rate the tab now too:
select rating
Wanna post a correction for this tab? Suggest correction