Oops, an error
Loading. Please wait.

Haruka Kanata Bass Tab

version 3
version 3

Whole song

1,095 views 9 this week
no commentswrite comment
1 2 3 4 5
please rate
add to favorites
launch autoscroll
font size
0
reset
guitar tuner
Tab Pro tools
  • play this tab
  • loop segment
  • change instrument
  • show fretboard
  • metronome
Autoscroll
slow
fast
+/-
esc
set tempo
stop
Contributor
Difficulty
intermediate
Asian Kung-Fu Generation - Haruka Kanata

Tabbed by: XxThreeCheersxX
E-mail: phantomhiveghost@gmail.com

Tuning: Standard

The other two tabs for this song on the site are all right,
But there were some parts that were missing or were off, 
So I used them as a starting point for this tab.
Happy playing!

Intro I
G|----------|
D|----------|
A|----------| x 8
E|-00020054-|

Intro II
G|---------------------------------|
D|---------------------------------|
A|-4-4-4442-22-2222----------------|
E|------------------5-5-5555-55-55-|

G|-------------------|
D|-------------------|
A|-------------------|
E|-00000000-00204054-|

G|---------------------------------|
D|---------------------------------|
A|-4-4-4442-22-2222----------------|
E|------------------5-5-5555-55-55-|

Verse I
G|------------------------------------------|
D|------------------------------------------|
A|--------4-4-4442-22-2222------------------| x 2
E|-0(x32)------------------5-5-5555-55-5555-|

Pre-chorus (x means mute immediately after playing)
G|---------------------------------------------------------------------------------|
D|--------------1x-2x--------------------------------------------------------------|
A|-4x-4x-4-2-4x-------4x-----------------------------------------4x----7x-7x-7-----|
E|--------4-4------------4x-4x-4020-4x-2x-4x-0x-5x-5x-5020-5x-7x----5x--------797--|

G|-----------|
D|-----------|
A|-7777-6666-|
E|-----------|

G|-------------------------------------------------------------------------------------|
D|--------------1x-2x------------------------------------------------------------------|
A|-4x-4x-4-2-4x-------4x---------------------------------------------------------------|
E|--------4-4------------4x-4x-4020-4x-2x-4x-0x-5~--4~--5~--4~-5-4-5~--4~--5~--7~--9-7-|

G|--------------------------|
D|--------------------------|
A|--------------------------|
E|-0~---7/12~----12\--------|

Chorus
G|----------------------------------------------------------------------|
D|------------------1-1-1111-11-1111------------------------------------|
A|-----------------------------------4-4-4442-22-2222-------------------|
E|-0-0-0000-00-0000-----------------------------------5-5-5555-55-5555--|




G|----------------------------------------------------------------------|
D|-2-2-2222-22-2222-1-1-1111-11-1111------------------------------------|
A|-----------------------------------4-4-4442-22-2222-------------------|
E|----------------------------------------------------5-5-5555-55-5555--|

Post-Chorus
G|----------|
D|----------|
A|----------| x 3
E|-00020054-|

G|-------|
D|-------|
A|-------| 
E|-00020-|

Verse II
G|------------------------------------------|
D|------------------------------------------|
A|--------4-4-4442-22-2222------------------| 
E|-0(x32)------------------5-5-5555-55-5555-|

G|------------------------------------------------------------------|
D|------------------------------------------------------------------|
A|-------------------------------4-4-4442-22-2222-------------------|
E|-0(x8)-00204054-0(x8)-00204054------------------5-5-5555-55-5555--|

Pre-Chorus (same as before)

Chorus (same as before)

Bridge
G|-----------------------------|
D|----------------4-2-4-6-4-2--|                            
A|--------------2--------------|
E|-0~---7/12~------------------|

G|--------------------------------------------------|
D|--------------------------------------------------| 
A|-4-4-4-4-4-4-2-2-2-2-2-2--------------------------|
E|-------------------------5-5-5-5-5-5-5-5-5-5-5-5--|

G|-----------------------------|
D|----------------4-2-4-6-4-2--|                            
A|--------------2--------------|
E|-0~---7/12~------------------|

G|--------------------------------------------------|
D|--------------------------------------------------| 
A|-4-4-4-4-4-4-2-2-2-2-2-2--------------------------|
E|-------------------------5-5-5-5-5-5-5-5-5-5-5-5--|

G|-------------------------------------------------------------------------|
D|-------------------------------------------------------------------------|
A|-------------4--4--4--4--------------2--2--------------------4--4--4--4--|
E|-4--4--4--4--------------5--5--5--5--------5--5--4--4--4--4--------------|

Ending
G|--------------------------------------------------------|
D|--------------------------------------------------------|
A|--------------------------------------------------------|
E|-5-x-x-5-x-x-5-x-x-5-5-7-8-8-8-8-8-8-8-8-8-8-9-11-12\0--|

G|----------------------------|
D|----------------------------|
A|-4-4-4-4-4-4-2-2-2-2-2-2----|
E|-------------------------5--|
comments
We did not receive enough feedback on this tab! Please rate:
print report bad tab
1 2 3 4 5
I want to post or [tab]
guest
You may want to rate the tab now too:
select rating
Please do not post tabs as comments. Select "correction" instead!