Oops, an error
Loading. Please wait.

Haruka Kanata bass

version 4
version 4
536 views 3 this week
no commentswrite comment
1 2 3 4 5
3 more votes to show rating
add to favorites
×
Save as Personal and add changes to this tab that will be seen only by you. Learn more ›
×
You can save this tab as Personal to edit and correct it or add notes. All changes will be seen only by you. Learn more »
launch autoscroll
font size
0
reset
guitar tuner
backing track
0:00
0:00
edit
Autoscroll
slow
fast
+/-
esc
set tempo
stop
Author
Difficulty
Sup Guys!
I have here the second opening to naruto. Fun track to jam to. All the other tabs to 
this song aren't as up to par. This has all of the smooth notes, that you don't usually 
hear while listening to the song.

Power to the bassists!

Song: Haruka Kanata
Artist:Asian Kung-fu Generation

Standard tuning
Intro:
G|---------------|---------------|---------------|---------------|
D|---------------|---------------|---------------|---------------|
A|---------------|---------------|---------------|---------------| X2
E|0-0-0-2-0-0-5-4|0-0-0-2-0-0-5-4|0-0-0-2-0-0-5-4|0-0-0-2-0-0-5-4|

G|---------------------------|---------------------|
D|---------------------------|---------------------|
A|---------------------------|---------------------|
E|9---9---9-9---7---7---7-7--|5---5---5-5-5-5-5-5-5|

G|-----------|
D|-----------|
A|-----------|
E|0~---------|

G|---------------------------|---------------------|
D|---------------------------|---------------------|
A|---------------------------|---------------------|
E|9---9---9-9---7---7---7-7--|5---5---5-5-5-5-5-5-5|


Verse:
G|------------------------------|------------------------------|
D|------------------------------|------------------------------|
A|------------------------------|------------------------------| X2
E|0--0-0--0--0-0--0--0-0--0--0-0|0--0-0--0--0-0--0--0-0--0--0-0|

G|---------------------------|---------------------|
D|---------------------------|---------------------|
A|---------------------------|---------------------|
E|9---9---9-9---7---7---7-7--|5---5---5-5-5-5-5-5-5|

G|------------------------------|------------------------------|
D|------------------------------|------------------------------|
A|------------------------------|------------------------------| X2
E|0--0-0--0--0-0--0--0-0--0--0-0|0--0-0--0--0-0--0--0-0--0--0-0|

G|---------------------------|---------------------|
D|---------------------------|---------------------|
A|---------------------------|---------------------|
E|9---9---9-9---7---7---7-7--|5---5---5-5-5-5-5-5-5|

G|----------------|-------------|
D|----------------|-------------|
A|4---4---4---2H--|4---6---7---4|
E|----------4----4|-------------|

G|------------------|----------------------|
D|------------------|----------------------|
A|------------------|----------------------|
E|4---4---4--0--2--0|4--0--2--0--2--0--4--0|

G|------------------|------------|
D|------------------|------------|
A|------------------|---2--4-----|
E|5---5---5--0--2--0|5--------5--|

G|-----------------|------------------|
D|-----------------|------------------|
A|7---7---7--------|--7-7-7-7--6-6-6-6|
E|-----------7-9H-7|------------------|

G|----------------|-------------|
D|----------------|-------------|
A|4---4---4---2H--|4---6---7---4|
E|----------4----4|-------------|

G|------------------|----------------------|
D|------------------|----------------------|
A|------------------|----------------------|
E|4---4---4--0--2--0|4--0--2--0--2--0--4--0|

G|---------------|----------------|
D|---------------|----------------|
A|---------------|----------------|
E|----5----4----5|----4----5---4--|

G|---------------|----------------|
D|---------------|----------------|
A|---------------|----------------|
E|----5----4----5|----4----5---4--|

Pre-Chorus
G|---------------------------|
D|---------------------------|
A|---------------------------|
E|----0~---------------------|

Chorus
G|----------------------|----------------------|
D|----------------------|----------------------|
A|---7---7-----7-7-7-7--|---7---7-----7-7-7-7--|
E|----------------------|----------------------|

G|----------------------|----------------------|
D|----------------------|----------------------|
A|----------------------|----------------------|
E|---7---7-----7-7-7-7--|---7---7-----7-7-7-7--|

G|---------------------|----------------------|
D|---------------------|----------------------|
A|---------------------|----------------------|
E|---9---9-----9-9-9---|---4---4-----4-4-4-4--|

G|---------------------|----------------------|
D|---------------------|----------------------|
A|---------------------|----------------------|
E|---5---5-----5-5-5---|---5---5-----5-5--5-5-|

G|----------------------|----------------------|
D|----------------------|----------------------|
A|---7---7-----7-7-7-7--|---7---7-----7-7-7-7--|
E|----------------------|----------------------|

G|----------------------|----------------------|
D|----------------------|----------------------|
A|----------------------|----------------------|
E|---7---7-----7-7-7-7--|---7---7-----7-7-7-7--|

G|---------------------|----------------------|
D|---------------------|----------------------|
A|---------------------|----------------------|
E|---9---9-----9-9-9---|---4---4-----4-4-4-4--|

G|---------------------|----------------------|
D|---------------------|----------------------|
A|---------------------|----------------------|
E|---5---5-----5-5-5---|---5---5-----5-5--5-5-|


G|---------------|---------------|---------------|---------------|
D|---------------|---------------|---------------|---------------|
A|---------------|---------------|---------------|---------------|
E|0-0-0-2-0-0-5-4|0-0-0-2-0-0-5-4|0-0-0-2-0-0-5-4|0-0-0-2-0-0-5-4|

Verse 2:
G|------------------------------|------------------------------|
D|------------------------------|------------------------------|
A|------------------------------|------------------------------| X2
E|0--0-0--0--0-0--0--0-0--0--0-0|0--0-0--0--0-0--0--0-0--0--0-0|

G|---------------------------|---------------------|
D|---------------------------|---------------------|
A|---------------------------|---------------------|
E|9---9---9-9---7---7---7-7--|5---5---5-5-5-5-5-5-5|

G|------------------------------|------------------------------|
D|------------------------------|------------------------------|
A|------------------------------|------------------------------| X2
E|0--0-0--0--0-0--0--0-0--0--0-0|0--0-0--0--0-0--0--0-0--0--0-0|

G|---------------------------|---------------------|
D|---------------------------|---------------------|
A|---------------------------|---------------------|
E|9---9---9-9---7---7---7-7--|5---5---5-5-5-5-5-5-5|

G|----------------|-------------|
D|----------------|-------------|
A|4---4---4---2H--|4---6---7---4|
E|----------4----4|-------------|

G|------------------|----------------------|
D|------------------|----------------------|
A|------------------|----------------------|
E|4---4---4--0--2--0|4--0--2--0--2--0--4--0|

G|------------------|------------|
D|------------------|------------|
A|------------------|---2--4-----|
E|5---5---5--0--2--0|5--------5--|

G|-----------------|------------------|
D|-----------------|------------------|
A|7---7---7--------|--7-7-7-7--6-6-6-6|
E|-----------7-9H-7|------------------|

G|----------------|-------------|
D|----------------|-------------|
A|4---4---4---2H--|4---6---7---4|
E|----------4----4|-------------|

G|------------------|----------------------|
D|------------------|----------------------|
A|------------------|----------------------|
E|4---4---4--0--2--0|4--0--2--0--2--0--4--0|

G|---------------|----------------|
D|---------------|----------------|
A|---------------|----------------|
E|----5----4----5|----4----5---4--|

G|---------------|----------------|
D|---------------|----------------|
A|---------------|----------------|
E|----5----4----5|----4----5---4--|

Pre-Chorus
G|------------------------------|
D|------------------------------|
A|------------------------------|
E|----0~------------/12---------|

Chorus 2
G|----------------------|----------------------|
D|----------------------|----------------------|
A|---7---7-----7-7-7-7--|---7---7-----7-7-7-7--|
E|----------------------|----------------------|

G|----------------------|----------------------|
D|----------------------|----------------------|
A|----------------------|----------------------|
E|---7---7-----7-7-7-7--|---7---7-----7-7-7-7--|

G|---------------------|----------------------|
D|---------------------|----------------------|
A|---------------------|----------------------|
E|---9---9-----9-9-9---|---4---4-----4-4-4-4--|

G|---------------------|----------------------|
D|---------------------|----------------------|
A|---------------------|----------------------|
E|---5---5-----5-5-5---|---5---5-----5-5--5-5-|

G|----------------------|----------------------|
D|----------------------|----------------------|
A|---7---7-----7-7-7-7--|---7---7-----7-7-7-7--|
E|----------------------|----------------------|

G|----------------------|----------------------|
D|----------------------|----------------------|
A|----------------------|----------------------|
E|---7---7-----7-7-7-7--|---7---7-----7-7-7-7--|

G|---------------------|----------------------|
D|---------------------|----------------------|
A|---------------------|----------------------|
E|---9---9-----9-9-9---|---4---4-----4-4-4-4--|

G|---------------------|----------------------|
D|---------------------|----------------------|
A|---------------------|----------------------|
E|---5---5-----5-5-5---|---5---5-----5-5--5-5-|

G|---------------|---------------|---------------|---------------|
D|---------------|---------------|---------------|---------------|
A|---------------|---------------|---------------|---------------|
E|0-0-0-2-0-0-5-4|0-0-0-2-0-0-5-4|0-0-0-2-0-0-5-4|0-0-0-2-0-0-5-4|

Verse 3:
G|------------------------------|------------------------------|
D|------------------------------|------------------------------|
A|------------------------------|------------------------------| X2
E|0--0-0--0--0-0--0--0-0--0--0-0|0--0-0--0--0-0--0--0-0--0--0-0|

G|---------------------------|---------------------|
D|---------------------------|---------------------|
A|---------------------------|---------------------|
E|9---9---9-9---7---7---7-7--|5---5---5-5-5-5-5-5-5|

G|------------------------------|------------------------------|
D|------------------------------|------------------------------|
A|------------------------------|------------------------------| X2
E|0--0-0--0--0-0--0--0-0--0--0-0|0--0-0--0--0-0--0--0-0--0--0-0|

G|---------------------------|---------------------|
D|---------------------------|---------------------|
A|---------------------------|---------------------|
E|9---9---9-9---7---7---7-7--|5---5---5-5-5-5-5-5-5|

G|----------------|-------------|
D|----------------|-------------|
A|4---4---4---2H--|4---6---7---4|
E|----------4----4|-------------|

G|------------------|----------------------|
D|------------------|----------------------|
A|------------------|----------------------|
E|4---4---4--0--2--0|4--0--2--0--2--0--4--0|

G|------------------|------------|
D|------------------|------------|
A|------------------|---2--4-----|
E|5---5---5--0--2--0|5--------5--|

G|-----------------|------------------|
D|-----------------|------------------|
A|7---7---7--------|--7-7-7-7--6-6-6-6|
E|-----------7-9H-7|------------------|

G|----------------|-------------|
D|----------------|-------------|
A|4---4---4---2H--|4---6---7---4|
E|----------4----4|-------------|

G|------------------|----------------------|
D|------------------|----------------------|
A|------------------|----------------------|
E|4---4---4--0--2--0|4--0--2--0--2--0--4--0|

G|---------------|----------------|
D|---------------|----------------|
A|---------------|----------------|
E|----5----4----5|----4----5---4--|

G|---------------|----------------|
D|---------------|----------------|
A|---------------|----------------|
E|----5----4----5|----4----5---4--|

Pre-Chorus
G|------------------------------|
D|------------------------------|
A|------------------------------|
E|----0~------------/12---------|

Chorus 3
G|----------------------|----------------------|
D|----------------------|----------------------|
A|---7---7-----7-7-7-7--|---7---7-----7-7-7-7--|
E|----------------------|----------------------|

G|----------------------|----------------------|
D|----------------------|----------------------|
A|----------------------|----------------------|
E|---7---7-----7-7-7-7--|---7---7-----7-7-7-7--|

G|---------------------|----------------------|
D|---------------------|----------------------|
A|---------------------|----------------------|
E|---9---9-----9-9-9---|---4---4-----4-4-4-4--|

G|---------------------|----------------------|
D|---------------------|----------------------|
A|---------------------|----------------------|
E|---5---5-----5-5-5---|---5---5-----5-5--5-5-|

G|----------------------|----------------------|
D|----------------------|----------------------|
A|---7---7-----7-7-7-7--|---7---7-----7-7-7-7--|
E|----------------------|----------------------|

G|----------------------|----------------------|
D|----------------------|----------------------|
A|----------------------|----------------------|
E|---7---7-----7-7-7-7--|---7---7-----7-7-7-7--|

G|---------------------|----------------------|
D|---------------------|----------------------|
A|---------------------|----------------------|
E|---9---9-----9-9-9---|---4---4-----4-4-4-4--|


G|-----------|----------|----------|------------|
D|-----------|----------|----------|------------|
A|-----------|----------|----------|------------|
E|---5--4--0-|-5--4--0--|--5--4--0-|-5--4--0----|

G|--------------------------|
D|--------------------------|
A|--------------------------|
E|----0~--------------------|

G|-----------------|-----------------|
D|-----------------|-----------------|
A|--4-4-4-4-4-4----|--2-2-2-2-2-2----|
E|-----------------|-----------------|

G|-----------------|-----------------|
D|-----------------|-----------------|
A|--0-0-0-0-0-0----|--0-0-0-0-0-0----|
E|-----------------|-----------------|

G|--------------------------|
D|--------------------------|
A|--------------------------|
E|----0~--------------------|

G|-----------------|-----------------|
D|-----------------|-----------------|
A|--4-4-4-4-4-4----|--2-2-2-2-2-2----|
E|-----------------|-----------------|

G|-----------------|-----------------|
D|-----------------|-----------------|
A|--0-0-0-0-0-0----|--0-0-0-0-0-0----|
E|-----------------|-----------------|

G|-----------------|-----------------|
D|-----------------|-----------------|
A|-----------------|-----------------|
E|---4-------4-----|----4-------4----|

G|-----------------|-----------------|
D|-----------------|-----------------|
A|-----------------|-----------------|
E|---9-------9-----|----9-------9----|

G|-----------------|-----------------|
D|-----------------|-----------------|
A|-----------------|-----------------|
E|---5-------5-----|----5-------5----|

G|-----------------|-----------------|
D|-----------------|-----------------|
A|-----------------|-----------------|
E|---7-------7-----|----5-------5----|

G|-----------------|-----------------|
D|-----------------|-----------------|
A|-----------------|-----------------|
E|---4-------4-----|----4-------4----|

G|-----------------|-----------------|
D|-----------------|-----------------|
A|-----------------|-----------------|
E|---9-------9-----|----9-------9----|

G|-----------------|-----------------|
D|-----------------|-----------------|
A|-----------------|-----------------|
E|--5-x-x-5-x-x----|--5-x-x-5-x-x----|

G|-----------------|-----------------|
D|-----------------|-----------------|
A|-----------------|-----------------|
E|--5-5-5-5-5-5----|--5-5-5-5-5-5----|

G|--------------------------|
D|--------------------------|
A|--------------------------|
E|----0~--------------------|

G|-----------------|-----------------|
D|-----------------|-----------------|
A|--4-4-4-4-4-4----|--2-2-2-2-2-2----|
E|-----------------|-----------------|

G|------|
D|------|
A|--0---|
E|------|

H= hammer ons
x= ghost notes
\=slide

            
            
Suggest correction
Creating personal tab
Creating personal tab
You can edit any tab online and save it as your Personal.

You can edit, replace or remove any tab part or add personal notes – all changes will be seen only by you.

Personal tabs can be accessed anytime from any device, even offline.
Learn more »
Give kudos to tab author, rate the tab!
1 2 3 4 5
comments
print report bad tab
guest
You may want to rate the tab now too:
select rating
Wanna post a correction for this tab? Suggest correction