Oops, an error
Loading. Please wait.

Kimi No Machi Made To Your Town Tab

1,694 views 1 this week
1 commentread comment
1 2 3 4 5
please rate
add to favorites
launch autoscroll
font size
0
reset
how to read this tab
guitar tuner
Tab Pro tools
  • play this tab
  • loop segment
  • change instrument
  • show fretboard
  • metronome
×
Best way to learn
"Kimi No Machi Made To Your Town"
Autoscroll
slow
fast
+/-
esc
set tempo
stop
Difficulty
intermediate
KIMI NO MACHI MADE

Stanza chords Gtr1

	F#/F	     F#       G#/G      G
e|-------------------------------------------------------|
B|-------------------------------------------------------|
G|-------------------------------------------------------|
D|-44444444-44444444-66666666-66666666-------------------|                 
A|-44444444-44444444-66666666-66666666-------------------|
E|-11111111-22222222-33333333-44444444-------------------|

Solo Intro Gtr2
e|---------------------9---------------------------|
B|-6--7--9--7---6--7--9-9--7-----------------------|
G|--6--6--6--6---6--6------------------------------|
D|-------------------------------------------------|                        
A|-------------------------------------------------|
E|-------------------------------------------------|

Solo Verse Gtr2
e|-------------------------------------------------|
B|-6-----------6--7--------------------------------|
G|------6-6--6-------------------------------------|
D|-------------------------------------------------|                        
A|-------------------------------------------------|
E|-------------------------------------------------|

Chorus:
e|-------------------------------------------------|
B|-------------------------------------------------|
G|---------------------------------6-66-6-66-------|
D|-4-44-4-44-3-33-3-33--6-66-6-66--6-66-6-66-------|                        
A|-4-44-4-44-4-44-4-44--6-66-6-66--4-44-4-44-------|
E|-2-22-2-22-1-11-1-11--4-44-4-44------------------|

e|-------------------------------------------------|
B|-------------------------------------------------|
G|-------------------------------------------------|
D|-4-44-4-44-3-33-3-33--6-66-6-66--8-88--6-66------|                        
A|-4-44-4-44-4-44-4-44--6-66-6-66--8-88--6-66------|
E|-2-22-2-22-1-11-1-11--4-44-4-44--6-66--4-44------|

Gtr2
e|-------13-----14----13-------------------------|
B|----14----14-----14----14----------------------|
G|-13--------------------------------------------|
D|-----------------------------------------------|   2x                     
A|-----------------------------------------------|
E|-----------------------------------------------|

Repeat stanza chords

Interlude:
e|-----------------------------------------------|
B|-----------------------------------------------|
G|-66-66-6x6-------------------------------------|
D|-66-66-6x6-------------------------------------|  4x                      
A|-44-44-4x4-------------------------------------|
E|-----------------------------------------------|

Solo:
e|----------------------------------------------|
B|----------------------------------------------|
G|----------------------------------------------|
D|-3333-3333--4444-4444--5555-5555-6666---------|  2x                      
A|-4444-4444--4444-4444--6666-6666-6666---------|
E|-1111-1111--2222-2222--3333-3333-4444---------|
Gtr2								
e|------------------------------------------------------------|
B|-10---7-9-7-------------------------------------------------|
G|-------------10--------------------8-------10-------8-------|
D|----------------11-11----11--11-11---11-11----11-11---11-11-|         
A|------------------------------------------------------------|
E|------------------------------------------------------------|
_______________________________________________________________________
e|-------------------------------------------------------------------|
B|-------------------------------------------------------------------|
G|-10--------8-------10--------8--------10-------8-------------------|
D|----11-11----11-11----11-11----11-11-----11-11--11-11-11-11-11-11--|      
A|-------------------------------------------------------------------|
E|-------------------------------------------------------------------|

		2x			
e|-----------------------|-------------------------------------------|
B|-10--------------------|-------------------------------------------|
G|----11-10-----------11-|-9-----10-----9-----10-----9---------------|
D|----------11-10/11-----|--11-11--11-11-11-11--11-11-11-11----------|      
A|--------------------9--|-------------------------------------------|
E|-------------8-/9------|-------------------------------------------|
_______________________________________________________________________
e|---13--13----16----14--13------------------------------------------|
B|-14--14--14------14--14----14--------------------------------------|
G|-------------------------------------------------------------------|
D|-------------------------------------------------------------------|      
A|-------------------------------------------------------------------|
E|-------------------------------------------------------------------|

Bridge:
      4x(C#-D-D#-D)				   4x
e|---------------------------------------------------------|
B|---------------------------------------------------------|
G|-6666-6666--------------------6666-6666------------------|
D|-6666-6666--44-44-4--44-44-4--6666-6666-----------6------|                
A|-4444-4444--44-44-4--44-44-4--4444-4444-----------4------|
E|------------22-22-2--22-22-2----------------------2------|
Gtr2						2x this part(end note F#)
e|---------------------------------------|-------------------------|
B|---------------------------------------|-------------------------|
G|---------------------------------------|-------------------------|
D|-66666666--77777777--88888888--77777777|-6666-44-43--33-44-4444--|2x      
A|---------------------------------------|-------------------------|
E|---------------------------------------|-------------------------|

Repeat Stanza chords
Repeat Chorus

Outro: (Last note F#)
e|--------------------------|
B|--------------------------|
G|--------------666---------|
D|-444-333--666-666---------|  2x                                          
A|-444-444--666-444---------|
E|-222-111--444-------------|








comments
We did not receive enough feedback on this tab! Please rate:
print report bad tab
1 2 3 4 5
1 comment total.
0 reply
Toshiro wrote on June 5 2006, 06:18 pm

Your solo is played out of key, and what are those "stanza chords"? I've never heard those in the song.

I want to post or [tab]
guest
You may want to rate the tab now too:
select rating
Please do not post tabs as comments. Select "correction" instead!