Oops, an error
Loading. Please wait.

Last Scene Tab

version 1
version 1

Whole song

Interactive

1,794 views 9 this week
no commentswrite comment
1 2 3 4 5
excellent!
x 2
add to favorites
launch autoscroll
font size
0
reset
how to read this tab
guitar tuner
Tab Pro tools
  • play this tab
  • loop segment
  • change instrument
  • show fretboard
  • metronome
Autoscroll
slow
fast
+/-
esc
set tempo
stop
Contributor
Last Scene
ASIAN KUNG-FU GENERATION

Tabbed by TOSHIRO

Standard tuning, two guitars, as usual.

(0:06)
Intro - Rhythm - This part is palm muted. I'll give you the chords.
|-------------|
|-------------|
|-------------|
|-8--4--6-----|
|-6--2--4-----|
|-------------|

Intro - Lead - This has delay.
|-----------------|
|-6--7------------|
|-------3--4--6---|
|-----------------|
|-----------------|
|-----------------|

(1:42)
Catchy part - Rhythm - You can barely hear this part but it's there.
|-------------------------|
|-------------------------|
|-------------------------|
|-4-----4-----6-----------|
|-2-----1-----4-----4-----|
|-------------------2-----|

|-------------------------|
|-------------------------|
|-------------------------|
|-4-----4-----6-----4-----|
|-2-----1-----4-----2-----|
|-------------------------|

Lead delay - This plays over and over in a certain rhythm.
|-13-14-13-------|
|----------14----|
|----------------|
|----------------|
|----------------|
|----------------|

End with
|-13-14-----|
|-----------|
|-----------|
|-----------|
|-----------|
|-----------|

(2:12)
At this part, play the palm muted part at the beginning.

(2:19)
Delay lead comes in, part from beginning.

(2:29)
Funky little solo. - This part seems to have 3 guitar recordings.
Guitar 1(x2)
|-------------------------------------------------------|
|-------------------------------------------------------|
|-10--11--10--11--10-10--11--13--15--13--15--13-13--15--|
|-------------------------------------------------------|
|-8---9---8---9---8--8---9---11--13--11--13--11-11--13--|
|-------------------------------------------------------|

Guitar 2(x2)
|------------------------------------------------|
|------------------------------------------------|
|-6--8--6--8--6-6--8--10--11--10--11--10-10--11--|
|------------------------------------------------|
|-4--6--4--6--4-4--6--8---9---8---9---8--8---9---|
|------------------------------------------------|

(2:44)
2 guitars continue, lead comes in (delay)
It's the lead that played at 1:42.

(2:59)
Play the beginnings riffs here.

(3:10)
This is the end phrase of the previous section. It changes to lead
into the next part.
|-------------|
|-------------|
|-8--4--6-----|
|-8--4--6--4--|
|-6--2--4--4--|
|----------2--|

(3:13)
Play the same chords for rhythm.
The lead is the beginning riff.

(3:28)
Ending solo thing.  Strum these repeatedly intstead of once
like the previous phrase like this one.
Guitar 1(x2)
|-------------------------------------------------------|
|-------------------------------------------------------|
|-10--11--10--11--10-10--11--13--15--13--15--13-13--15--|
|-------------------------------------------------------|
|-8---9---8---9---8--8---9---11--13--11--13--11-11--13--|
|-------------------------------------------------------|

Guitar 2(x2)
|------------------------------------------------|
|------------------------------------------------|
|-6--8--6--8--6-6--8--10--11--10--11--10-10--11--|
|------------------------------------------------|
|-4--6--4--6--4-4--6--8---9---8---9---8--8---9---|
|------------------------------------------------|

(3:43)
Play the same thing but as you did in the first solo at 2:29.
Play the lead delay riff from the beginning as well.
There is a new guitar added here.
This plays 3 times.
|-------------------|
|-------------------|
|-10--11--3--4--6-8-|
|-------------------|
|-8---9---1--2--4-6-|
|-------------------|
And the 4th time it finishes like this.
|-------------------|
|-------------------|
|-10--11--10-11-----|
|-------------------|
|-8---9---8--9------|
|-------------------|

Hope there aren't any errors, enjoy! :D
comments
We did not receive enough feedback on this tab! Please rate:
print report bad tab
1 2 3 4 5
I want to post or [tab]
guest
You may want to rate the tab now too:
select rating
Please do not post tabs as comments. Select "correction" instead!